  0
SECTION
  2
HEADER
  9
$ACADVER
  1
AC1015
  9
$ACADMAINTVER
 70
     6
  9
$DWGCODEPAGE
  3
ANSI_1254
  9
$INSBASE
 10
0.0
 20
0.0
 30
0.0
  9
$EXTMIN
 10
0.0
 20
0.0
 30
0.0
  9
$EXTMAX
 10
279.4
 20
215.9
 30
0.0
  9
$LIMMIN
 10
0.0
 20
0.0
  9
$LIMMAX
 10
279.4
 20
215.9
  9
$ORTHOMODE
 70
     0
  9
$REGENMODE
 70
     1
  9
$FILLMODE
 70
     1
  9
$QTEXTMODE
 70
     0
  9
$MIRRTEXT
 70
     1
  9
$LTSCALE
 40
1.0
  9
$ATTMODE
 70
     1
  9
$TEXTSIZE
 40
3.5
  9
$TRACEWID
 40
1.0
  9
$TEXTSTYLE
  7
Standard
  9
$CLAYER
  8
0
  9
$CELTYPE
  6
ByLayer
  9
$CECOLOR
 62
   256
  9
$CELTSCALE
 40
1.0
  9
$DISPSILH
 70
     0
  9
$DIMSCALE
 40
1.0
  9
$DIMASZ
 40
3.5
  9
$DIMEXO
 40
1.0
  9
$DIMDLI
 40
3.75
  9
$DIMRND
 40
0.0
  9
$DIMDLE
 40
0.0
  9
$DIMEXE
 40
1.0
  9
$DIMTP
 40
0.0
  9
$DIMTM
 40
0.0
  9
$DIMTXT
 40
3.5
  9
$DIMCEN
 40
2.5
  9
$DIMTSZ
 40
0.0
  9
$DIMTOL
 70
     0
  9
$DIMLIM
 70
     0
  9
$DIMTIH
 70
     1
  9
$DIMTOH
 70
     1
  9
$DIMSE1
 70
     0
  9
$DIMSE2
 70
     0
  9
$DIMTAD
 70
     1
  9
$DIMZIN
 70
     0
  9
$DIMBLK
  1

  9
$DIMASO
 70
     1
  9
$DIMSHO
 70
     1
  9
$DIMPOST
  1

  9
$DIMAPOST
  1

  9
$DIMALT
 70
     0
  9
$DIMALTD
 70
     3
  9
$DIMALTF
 40
0.0393700787
  9
$DIMLFAC
 40
1.0
  9
$DIMTOFL
 70
     1
  9
$DIMTVP
 40
0.0
  9
$DIMTIX
 70
     0
  9
$DIMSOXD
 70
     0
  9
$DIMSAH
 70
     0
  9
$DIMBLK1
  1

  9
$DIMBLK2
  1

  9
$DIMSTYLE
  2
ISO-25
  9
$DIMCLRD
 70
     0
  9
$DIMCLRE
 70
     0
  9
$DIMCLRT
 70
     0
  9
$DIMTFAC
 40
1.0
  9
$DIMGAP
 40
1.524
  9
$DIMJUST
 70
     0
  9
$DIMSD1
 70
     0
  9
$DIMSD2
 70
     0
  9
$DIMTOLJ
 70
     0
  9
$DIMTZIN
 70
     0
  9
$DIMALTZ
 70
     0
  9
$DIMALTTZ
 70
     0
  9
$DIMUPT
 70
     0
  9
$DIMDEC
 70
     2
  9
$DIMTDEC
 70
     2
  9
$DIMALTU
 70
     2
  9
$DIMALTTD
 70
     3
  9
$DIMTXSTY
  7
Standard
  9
$DIMAUNIT
 70
     0
  9
$DIMADEC
 70
     2
  9
$DIMALTRND
 40
0.0
  9
$DIMAZIN
 70
     0
  9
$DIMDSEP
 70
    44
  9
$DIMATFIT
 70
     3
  9
$DIMFRAC
 70
     0
  9
$DIMLDRBLK
  1

  9
$DIMLUNIT
 70
     2
  9
$DIMLWD
 70
    -2
  9
$DIMLWE
 70
    -2
  9
$DIMTMOVE
 70
     0
  9
$LUNITS
 70
     2
  9
$LUPREC
 70
     2
  9
$SKETCHINC
 40
1.0
  9
$FILLETRAD
 40
10.0
  9
$AUNITS
 70
     0
  9
$AUPREC
 70
     2
  9
$MENU
  1
.
  9
$ELEVATION
 40
0.0
  9
$PELEVATION
 40
0.0
  9
$THICKNESS
 40
0.0
  9
$LIMCHECK
 70
     0
  9
$CHAMFERA
 40
0.0
  9
$CHAMFERB
 40
0.0
  9
$CHAMFERC
 40
0.0
  9
$CHAMFERD
 40
0.0
  9
$SKPOLY
 70
     0
  9
$TDCREATE
 40
2459741.588674896
  9
$TDUCREATE
 40
2459741.463674896
  9
$TDUPDATE
 40
2459741.588676424
  9
$TDUUPDATE
 40
2459741.463676424
  9
$TDINDWG
 40
0.0000000116
  9
$TDUSRTIMER
 40
0.0000000116
  9
$USRTIMER
 70
     1
  9
$ANGBASE
 50
0.0
  9
$ANGDIR
 70
     0
  9
$PDMODE
 70
     0
  9
$PDSIZE
 40
-1.0
  9
$PLINEWID
 40
0.0
  9
$SPLFRAME
 70
     0
  9
$SPLINETYPE
 70
     6
  9
$SPLINESEGS
 70
     8
  9
$HANDSEED
  5
126
  9
$SURFTAB1
 70
     6
  9
$SURFTAB2
 70
     6
  9
$SURFTYPE
 70
     6
  9
$SURFU
 70
     6
  9
$SURFV
 70
     6
  9
$UCSBASE
  2

  9
$UCSNAME
  2

  9
$UCSORG
 10
0.0
 20
0.0
 30
0.0
  9
$UCSXDIR
 10
1.0
 20
0.0
 30
0.0
  9
$UCSYDIR
 10
0.0
 20
1.0
 30
0.0
  9
$UCSORTHOREF
  2

  9
$UCSORTHOVIEW
 70
     0
  9
$UCSORGTOP
 10
0.0
 20
0.0
 30
0.0
  9
$UCSORGBOTTOM
 10
0.0
 20
0.0
 30
0.0
  9
$UCSORGLEFT
 10
0.0
 20
0.0
 30
0.0
  9
$UCSORGRIGHT
 10
0.0
 20
0.0
 30
0.0
  9
$UCSORGFRONT
 10
0.0
 20
0.0
 30
0.0
  9
$UCSORGBACK
 10
0.0
 20
0.0
 30
0.0
  9
$PUCSBASE
  2

  9
$PUCSNAME
  2

  9
$PUCSORG
 10
0.0
 20
0.0
 30
0.0
  9
$PUCSXDIR
 10
1.0
 20
0.0
 30
0.0
  9
$PUCSYDIR
 10
0.0
 20
1.0
 30
0.0
  9
$PUCSORTHOREF
  2

  9
$PUCSORTHOVIEW
 70
     0
  9
$PUCSORGTOP
 10
0.0
 20
0.0
 30
0.0
  9
$PUCSORGBOTTOM
 10
0.0
 20
0.0
 30
0.0
  9
$PUCSORGLEFT
 10
0.0
 20
0.0
 30
0.0
  9
$PUCSORGRIGHT
 10
0.0
 20
0.0
 30
0.0
  9
$PUCSORGFRONT
 10
0.0
 20
0.0
 30
0.0
  9
$PUCSORGBACK
 10
0.0
 20
0.0
 30
0.0
  9
$USERI1
 70
     0
  9
$USERI2
 70
     0
  9
$USERI3
 70
     0
  9
$USERI4
 70
     0
  9
$USERI5
 70
     0
  9
$USERR1
 40
0.0
  9
$USERR2
 40
0.0
  9
$USERR3
 40
0.0
  9
$USERR4
 40
0.0
  9
$USERR5
 40
0.0
  9
$WORLDVIEW
 70
     1
  9
$SHADEDGE
 70
     3
  9
$SHADEDIF
 70
    70
  9
$TILEMODE
 70
     1
  9
$MAXACTVP
 70
    64
  9
$PINSBASE
 10
0.0
 20
0.0
 30
0.0
  9
$PLIMCHECK
 70
     0
  9
$PEXTMIN
 10
1.0000000000E+20
 20
1.0000000000E+20
 30
1.0000000000E+20
  9
$PEXTMAX
 10
-1.0000000000E+20
 20
-1.0000000000E+20
 30
-1.0000000000E+20
  9
$PLIMMIN
 10
0.0
 20
0.0
  9
$PLIMMAX
 10
420.0
 20
297.0
  9
$UNITMODE
 70
     0
  9
$VISRETAIN
 70
     1
  9
$PLINEGEN
 70
     0
  9
$PSLTSCALE
 70
     1
  9
$TREEDEPTH
 70
  3020
  9
$CMLSTYLE
  2
Standard
  9
$CMLJUST
 70
     0
  9
$CMLSCALE
 40
20.0
  9
$PROXYGRAPHICS
 70
     1
  9
$MEASUREMENT
 70
     1
  9
$CELWEIGHT
370
    -1
  9
$ENDCAPS
280
     0
  9
$JOINSTYLE
280
     0
  9
$LWDISPLAY
290
     1
  9
$INSUNITS
 70
     4
  9
$HYPERLINKBASE
  1

  9
$STYLESHEET
  1

  9
$XEDIT
290
     1
  9
$CEPSNTYPE
380
     0
  9
$PSTYLEMODE
290
     1
  9
$FINGERPRINTGUID
  2
{73dc1f54-c4ae-4543-9fa0-2024aa519dcd}
  9
$VERSIONGUID
  2
{FAEB1C32-E019-11D5-929B-00C0DF256EC4}
  9
$EXTNAMES
290
     1
  9
$PSVPSCALE
 40
0.0
  9
$OLESTARTUP
290
     0
  0
ENDSEC
  0
SECTION
  2
CLASSES
  0
CLASS
  1
ACDBDICTIONARYWDFLT
  2
AcDbDictionaryWithDefault
  3
ObjectDBX Classes
 90
        0
280
     0
281
     0
  0
CLASS
  1
VISUALSTYLE
  2
AcDbVisualStyle
  3
ObjectDBX Classes
 90
     4095
280
     0
281
     0
  0
CLASS
  1
MATERIAL
  2
AcDbMaterial
  3
ObjectDBX Classes
 90
     1153
280
     0
281
     0
  0
CLASS
  1
SCALE
  2
AcDbScale
  3
ObjectDBX Classes
 90
     1153
280
     0
281
     0
  0
CLASS
  1
TABLESTYLE
  2
AcDbTableStyle
  3
ObjectDBX Classes
 90
     4095
280
     0
281
     0
  0
CLASS
  1
MLEADERSTYLE
  2
AcDbMLeaderStyle
  3
ACDB_MLEADERSTYLE_CLASS
 90
     4095
280
     0
281
     0
  0
CLASS
  1
SUN
  2
AcDbSun
  3
SCENEOE
 90
     1153
280
     0
281
     0
  0
CLASS
  1
ACDBPLACEHOLDER
  2
AcDbPlaceHolder
  3
ObjectDBX Classes
 90
        0
280
     0
281
     0
  0
CLASS
  1
LAYOUT
  2
AcDbLayout
  3
ObjectDBX Classes
 90
        0
280
     0
281
     0
  0
ENDSEC
  0
SECTION
  2
TABLES
  0
TABLE
  2
VPORT
  5
8
330
0
100
AcDbSymbolTable
 70
     1
  0
VPORT
  5
29
330
8
100
AcDbSymbolTableRecord
100
AcDbViewportTableRecord
  2
*Active
 70
     0
 10
0.0
 20
0.0
 11
1.0
 21
1.0
 12
139.7
 22
107.95
 13
0.0
 23
0.0
 14
10.0
 24
10.0
 15
10.0
 25
10.0
 16
0.0
 26
0.0
 36
1.0
 17
0.0
 27
0.0
 37
0.0
 40
215.9
 41
1.2941176471
 42
50.0
 43
0.0
 44
0.0
 50
0.0
 51
0.0
 71
     0
 72
  2000
 73
     1
 74
     3
 75
     0
 76
     0
 77
     0
 78
     0
281
     0
 65
     1
110
0.0
120
0.0
130
0.0
111
1.0
121
0.0
131
0.0
112
0.0
122
1.0
132
0.0
 79
     0
146
0.0
  0
ENDTAB
  0
TABLE
  2
LTYPE
  5
5
330
0
100
AcDbSymbolTable
 70
     6
  0
LTYPE
  5
14
330
5
100
AcDbSymbolTableRecord
100
AcDbLinetypeTableRecord
  2
ByBlock
 70
     0
  3

 72
    65
 73
     0
 40
0.0
  0
LTYPE
  5
15
330
5
100
AcDbSymbolTableRecord
100
AcDbLinetypeTableRecord
  2
ByLayer
 70
     0
  3

 72
    65
 73
     0
 40
0.0
  0
LTYPE
  5
16
330
5
100
AcDbSymbolTableRecord
100
AcDbLinetypeTableRecord
  2
Continuous
 70
     0
  3
Solid line
 72
    65
 73
     0
 40
0.0
  0
LTYPE
  5
6E
330
5
100
AcDbSymbolTableRecord
100
AcDbLinetypeTableRecord
  2
HIDDEN
 70
     0
  3
Hidden __ __ __ __ __ __ __ __ __ __ __ __ __ __
 72
    65
 73
     2
 40
1.905
 49
1.27
 74
     0
 49
-0.635
 74
     0
  0
LTYPE
  5
6F
330
5
100
AcDbSymbolTableRecord
100
AcDbLinetypeTableRecord
  2
PHANTOM
 70
     0
  3
Phantom ______  __  __  ______  __  __  ______
 72
    65
 73
     6
 40
12.7
 49
6.35
 74
     0
 49
-1.27
 74
     0
 49
1.27
 74
     0
 49
-1.27
 74
     0
 49
1.27
 74
     0
 49
-1.27
 74
     0
  0
LTYPE
  5
70
330
5
100
AcDbSymbolTableRecord
100
AcDbLinetypeTableRecord
  2
CENTER
 70
     0
  3
Center ____ _ ____ _ ____ _ ____ _ ____ _ ____
 72
    65
 73
     4
 40
10.16
 49
6.35
 74
     0
 49
-1.27
 74
     0
 49
1.27
 74
     0
 49
-1.27
 74
     0
  0
LTYPE
  5
71
330
5
100
AcDbSymbolTableRecord
100
AcDbLinetypeTableRecord
  2
CENTERX2
 70
     0
  3
Center (2x) ________  __  ________  __  _____
 72
    65
 73
     4
 40
20.32
 49
12.7
 74
     0
 49
-2.54
 74
     0
 49
2.54
 74
     0
 49
-2.54
 74
     0
  0
LTYPE
  5
72
330
5
100
AcDbSymbolTableRecord
100
AcDbLinetypeTableRecord
  2
DOT2
 70
     0
  3
Dot (.5x) ........................................
 72
    65
 73
     2
 40
0.635
 49
0.0
 74
     0
 49
-0.635
 74
     0
  0
ENDTAB
  0
TABLE
  2
LAYER
  5
2
330
0
100
AcDbSymbolTable
 70
    17
  0
LAYER
  5
10
330
2
100
AcDbSymbolTableRecord
100
AcDbLayerTableRecord
  2
0
 70
     0
 62
     7
  6
Continuous
370
    -3
390
F
  0
LAYER
  5
73
330
2
100
AcDbSymbolTableRecord
100
AcDbLayerTableRecord
  2
FORMAT
 70
     0
 62
     7
  6
Continuous
370
    -3
390
F
  0
LAYER
  5
74
330
2
100
AcDbSymbolTableRecord
100
AcDbLayerTableRecord
  2
YARDIMCI_GEOMETRI
 70
     0
 62
    -6
  6
Continuous
290
     0
370
    -3
390
F
  0
LAYER
  5
75
330
2
100
AcDbSymbolTableRecord
100
AcDbLayerTableRecord
  2
SAYFA_CERCEVESI
 70
     0
 62
     7
  6
Continuous
370
    25
390
F
  0
LAYER
  5
76
330
2
100
AcDbSymbolTableRecord
100
AcDbLayerTableRecord
  2
ANTET
 70
     0
 62
     7
  6
Continuous
370
    -3
390
F
  0
LAYER
  5
77
330
2
100
AcDbSymbolTableRecord
100
AcDbLayerTableRecord
  2
OLCU
 70
     0
 62
   150
  6
Continuous
370
    -3
390
F
  0
LAYER
  5
78
330
2
100
AcDbSymbolTableRecord
100
AcDbLayerTableRecord
  2
METIN
 70
     0
 62
    96
  6
Continuous
370
    -3
390
F
  0
LAYER
  5
79
330
2
100
AcDbSymbolTableRecord
100
AcDbLayerTableRecord
  2
BALON
 70
     0
 62
     5
  6
Continuous
370
    -3
390
F
  0
LAYER
  5
7A
330
2
100
AcDbSymbolTableRecord
100
AcDbLayerTableRecord
  2
VURGU
 70
     0
 62
     7
  6
Continuous
370
    -3
390
F
  0
LAYER
  5
7B
330
2
100
AcDbSymbolTableRecord
100
AcDbLayerTableRecord
  2
SILIK
 70
     0
 62
     7
  6
Continuous
370
    -3
390
F
  0
LAYER
  5
7C
330
2
100
AcDbSymbolTableRecord
100
AcDbLayerTableRecord
  2
MODEL
 70
     0
 62
     7
  6
Continuous
370
    -3
390
F
  0
LAYER
  5
7D
330
2
100
AcDbSymbolTableRecord
100
AcDbLayerTableRecord
  2
DETAYLANDıRMA
 70
     0
 62
   190
  6
Continuous
370
    -3
390
F
  0
LAYER
  5
7E
330
2
100
AcDbSymbolTableRecord
100
AcDbLayerTableRecord
  2
TOLERANS
 70
     0
 62
   230
  6
Continuous
370
    -3
390
F
  0
LAYER
  5
7F
330
2
100
AcDbSymbolTableRecord
100
AcDbLayerTableRecord
  2
MERKEZ_CIZGILERI
 70
     0
 62
    30
  6
Continuous
370
    -3
390
F
  0
LAYER
  5
80
330
2
100
AcDbSymbolTableRecord
100
AcDbLayerTableRecord
  2
KESIT-DETAY_CIZGILERI
 70
     0
 62
     7
  6
Continuous
370
    -3
390
F
  0
LAYER
  5
81
330
2
100
AcDbSymbolTableRecord
100
AcDbLayerTableRecord
  2
\U+041E\U+0421\U+0415\U+0412\U+042B\U+0415
 70
     0
 62
     7
  6
Continuous
370
    -3
390
F
  0
LAYER
  5
82
330
2
100
AcDbSymbolTableRecord
100
AcDbLayerTableRecord
  2
\U+0412\U+041E\U+0414\U+042F\U+041D\U+042B\U+0415_\U+0417\U+041D\U+0410\U+041A\U+0418
 70
     0
 62
    11
  6
Continuous
370
    -3
390
F
  0
ENDTAB
  0
TABLE
  2
STYLE
  5
3
330
0
100
AcDbSymbolTable
 70
     1
  0
STYLE
  5
11
330
3
100
AcDbSymbolTableRecord
100
AcDbTextStyleTableRecord
  2
Standard
 70
     0
 40
0.0
 41
1.0
 50
0.0
 71
     0
 42
3.5
  3
txt
  4

  0
ENDTAB
  0
TABLE
  2
VIEW
  5
6
330
0
100
AcDbSymbolTable
 70
     0
  0
ENDTAB
  0
TABLE
  2
UCS
  5
7
330
0
100
AcDbSymbolTable
 70
     0
  0
ENDTAB
  0
TABLE
  2
APPID
  5
9
330
0
100
AcDbSymbolTable
 70
     1
  0
APPID
  5
12
330
9
100
AcDbSymbolTableRecord
100
AcDbRegAppTableRecord
  2
ACAD
 70
     0
  0
ENDTAB
  0
TABLE
  2
DIMSTYLE
  5
A
330
0
100
AcDbSymbolTable
 70
     1
100
AcDbDimStyleTable
  0
DIMSTYLE
105
27
330
A
100
AcDbSymbolTableRecord
100
AcDbDimStyleTableRecord
  2
ISO-25
 70
     0
 41
2.5
 42
0.625
 43
3.75
 44
1.25
 73
     0
 74
     0
 77
     1
 78
     8
140
2.5
141
2.5
143
0.0393700787
147
0.625
171
     3
172
     1
178
     0
271
     2
272
     2
274
     3
278
    44
283
     0
284
     8
340
11
  0
ENDTAB
  0
TABLE
  2
BLOCK_RECORD
  5
1
330
0
100
AcDbSymbolTable
 70
     6
  0
BLOCK_RECORD
  5
1F
330
1
100
AcDbSymbolTableRecord
100
AcDbBlockTableRecord
  2
*Model_Space
340
22
  0
BLOCK_RECORD
  5
1B
330
1
100
AcDbSymbolTableRecord
100
AcDbBlockTableRecord
  2
*Paper_Space
340
1E
  0
BLOCK_RECORD
  5
23
330
1
100
AcDbSymbolTableRecord
100
AcDbBlockTableRecord
  2
*Paper_Space0
340
26
  0
BLOCK_RECORD
  5
8F
330
1
100
AcDbSymbolTableRecord
100
AcDbBlockTableRecord
  2
SW_CENTERMARKSYMBOL_0
340
0
102
{BLKREFS
331
9A
102
}
  0
BLOCK_RECORD
  5
9B
330
1
100
AcDbSymbolTableRecord
100
AcDbBlockTableRecord
  2
SW_CENTERMARKSYMBOL_1
340
0
102
{BLKREFS
331
A6
102
}
  0
BLOCK_RECORD
  5
A7
330
1
100
AcDbSymbolTableRecord
100
AcDbBlockTableRecord
  2
SW_CENTERMARKSYMBOL_2
340
0
102
{BLKREFS
331
B2
102
}
  0
BLOCK_RECORD
  5
B3
330
1
100
AcDbSymbolTableRecord
100
AcDbBlockTableRecord
  2
SW_CENTERMARKSYMBOL_3
340
0
102
{BLKREFS
331
BE
102
}
  0
BLOCK_RECORD
  5
BF
330
1
100
AcDbSymbolTableRecord
100
AcDbBlockTableRecord
  2
SW_CENTERMARKSYMBOL_4
340
0
102
{BLKREFS
331
CA
102
}
  0
ENDTAB
  0
ENDSEC
  0
SECTION
  2
BLOCKS
  0
BLOCK
  5
20
330
1F
100
AcDbEntity
  8
0
100
AcDbBlockBegin
  2
*Model_Space
 70
     0
 10
0.0
 20
0.0
 30
0.0
  3
*Model_Space
  1

  0
ENDBLK
  5
21
330
1F
100
AcDbEntity
  8
0
100
AcDbBlockEnd
  0
BLOCK
  5
1C
330
1B
100
AcDbEntity
 67
     1
  8
0
100
AcDbBlockBegin
  2
*Paper_Space
 70
     0
 10
0.0
 20
0.0
 30
0.0
  3
*Paper_Space
  1

  0
ENDBLK
  5
1D
330
1B
100
AcDbEntity
 67
     1
  8
0
100
AcDbBlockEnd
  0
BLOCK
  5
24
330
23
100
AcDbEntity
  8
0
100
AcDbBlockBegin
  2
*Paper_Space0
 70
     0
 10
0.0
 20
0.0
 30
0.0
  3
*Paper_Space0
  1

  0
ENDBLK
  5
25
330
23
100
AcDbEntity
  8
0
100
AcDbBlockEnd
  0
BLOCK
  5
90
330
8F
100
AcDbEntity
  8
0
100
AcDbBlockBegin
  2
SW_CENTERMARKSYMBOL_0
 70
     0
 10
0.0
 20
0.0
 30
0.0
  3
SW_CENTERMARKSYMBOL_0
  1

  0
LINE
  5
92
330
8F
100
AcDbEntity
  8
FORMAT
 62
     0
100
AcDbLine
 10
0.0
 20
0.0
 30
0.0
 11
0.0
 21
2.5
 31
0.0
  0
LINE
  5
93
330
8F
100
AcDbEntity
  8
FORMAT
 62
     0
100
AcDbLine
 10
0.0
 20
0.0
 30
0.0
 11
-2.5
 21
0.0
 31
0.0
  0
LINE
  5
94
330
8F
100
AcDbEntity
  8
FORMAT
 62
     0
100
AcDbLine
 10
0.0
 20
0.0
 30
0.0
 11
0.0
 21
-2.5
 31
0.0
  0
LINE
  5
95
330
8F
100
AcDbEntity
  8
FORMAT
 62
     0
100
AcDbLine
 10
0.0
 20
0.0
 30
0.0
 11
2.5
 21
0.0
 31
0.0
  0
LINE
  5
96
330
8F
100
AcDbEntity
  8
FORMAT
 62
     0
100
AcDbLine
 10
0.0
 20
5.0
 30
0.0
 11
0.0
 21
99.5
 31
0.0
  0
LINE
  5
97
330
8F
100
AcDbEntity
  8
FORMAT
 62
     0
100
AcDbLine
 10
-5.0
 20
0.0
 30
0.0
 11
-99.5
 21
0.0
 31
0.0
  0
LINE
  5
98
330
8F
100
AcDbEntity
  8
FORMAT
 62
     0
100
AcDbLine
 10
0.0
 20
-5.0
 30
0.0
 11
0.0
 21
-99.5
 31
0.0
  0
LINE
  5
99
330
8F
100
AcDbEntity
  8
FORMAT
 62
     0
100
AcDbLine
 10
5.0
 20
0.0
 30
0.0
 11
99.5
 21
0.0
 31
0.0
  0
ENDBLK
  5
91
330
8F
100
AcDbEntity
  8
0
100
AcDbBlockEnd
  0
BLOCK
  5
9C
330
9B
100
AcDbEntity
  8
0
100
AcDbBlockBegin
  2
SW_CENTERMARKSYMBOL_1
 70
     0
 10
0.0
 20
0.0
 30
0.0
  3
SW_CENTERMARKSYMBOL_1
  1

  0
LINE
  5
9E
330
9B
100
AcDbEntity
  8
FORMAT
 62
     0
100
AcDbLine
 10
0.0
 20
0.0
 30
0.0
 11
0.0
 21
2.5
 31
0.0
  0
LINE
  5
9F
330
9B
100
AcDbEntity
  8
FORMAT
 62
     0
100
AcDbLine
 10
0.0
 20
0.0
 30
0.0
 11
-2.5
 21
0.0
 31
0.0
  0
LINE
  5
A0
330
9B
100
AcDbEntity
  8
FORMAT
 62
     0
100
AcDbLine
 10
0.0
 20
0.0
 30
0.0
 11
0.0
 21
-2.5
 31
0.0
  0
LINE
  5
A1
330
9B
100
AcDbEntity
  8
FORMAT
 62
     0
100
AcDbLine
 10
0.0
 20
0.0
 30
0.0
 11
2.5
 21
0.0
 31
0.0
  0
LINE
  5
A2
330
9B
100
AcDbEntity
  8
FORMAT
 62
     0
100
AcDbLine
 10
0.0
 20
5.0
 30
0.0
 11
0.0
 21
12.5
 31
0.0
  0
LINE
  5
A3
330
9B
100
AcDbEntity
  8
FORMAT
 62
     0
100
AcDbLine
 10
-5.0
 20
0.0
 30
0.0
 11
-12.5
 21
0.0
 31
0.0
  0
LINE
  5
A4
330
9B
100
AcDbEntity
  8
FORMAT
 62
     0
100
AcDbLine
 10
0.0
 20
-5.0
 30
0.0
 11
0.0
 21
-12.5
 31
0.0
  0
LINE
  5
A5
330
9B
100
AcDbEntity
  8
FORMAT
 62
     0
100
AcDbLine
 10
5.0
 20
0.0
 30
0.0
 11
12.5
 21
0.0
 31
0.0
  0
ENDBLK
  5
9D
330
9B
100
AcDbEntity
  8
0
100
AcDbBlockEnd
  0
BLOCK
  5
A8
330
A7
100
AcDbEntity
  8
0
100
AcDbBlockBegin
  2
SW_CENTERMARKSYMBOL_2
 70
     0
 10
0.0
 20
0.0
 30
0.0
  3
SW_CENTERMARKSYMBOL_2
  1

  0
LINE
  5
AA
330
A7
100
AcDbEntity
  8
FORMAT
 62
     0
100
AcDbLine
 10
0.0
 20
0.0
 30
0.0
 11
0.0
 21
2.5
 31
0.0
  0
LINE
  5
AB
330
A7
100
AcDbEntity
  8
FORMAT
 62
     0
100
AcDbLine
 10
0.0
 20
0.0
 30
0.0
 11
-2.5
 21
0.0
 31
0.0
  0
LINE
  5
AC
330
A7
100
AcDbEntity
  8
FORMAT
 62
     0
100
AcDbLine
 10
0.0
 20
0.0
 30
0.0
 11
0.0
 21
-2.5
 31
0.0
  0
LINE
  5
AD
330
A7
100
AcDbEntity
  8
FORMAT
 62
     0
100
AcDbLine
 10
0.0
 20
0.0
 30
0.0
 11
2.5
 21
0.0
 31
0.0
  0
LINE
  5
AE
330
A7
100
AcDbEntity
  8
FORMAT
 62
     0
100
AcDbLine
 10
0.0
 20
5.0
 30
0.0
 11
0.0
 21
12.5
 31
0.0
  0
LINE
  5
AF
330
A7
100
AcDbEntity
  8
FORMAT
 62
     0
100
AcDbLine
 10
-5.0
 20
0.0
 30
0.0
 11
-12.5
 21
0.0
 31
0.0
  0
LINE
  5
B0
330
A7
100
AcDbEntity
  8
FORMAT
 62
     0
100
AcDbLine
 10
0.0
 20
-5.0
 30
0.0
 11
0.0
 21
-12.5
 31
0.0
  0
LINE
  5
B1
330
A7
100
AcDbEntity
  8
FORMAT
 62
     0
100
AcDbLine
 10
5.0
 20
0.0
 30
0.0
 11
12.5
 21
0.0
 31
0.0
  0
ENDBLK
  5
A9
330
A7
100
AcDbEntity
  8
0
100
AcDbBlockEnd
  0
BLOCK
  5
B4
330
B3
100
AcDbEntity
  8
0
100
AcDbBlockBegin
  2
SW_CENTERMARKSYMBOL_3
 70
     0
 10
0.0
 20
0.0
 30
0.0
  3
SW_CENTERMARKSYMBOL_3
  1

  0
LINE
  5
B6
330
B3
100
AcDbEntity
  8
FORMAT
 62
     0
100
AcDbLine
 10
0.0
 20
0.0
 30
0.0
 11
0.0
 21
2.5
 31
0.0
  0
LINE
  5
B7
330
B3
100
AcDbEntity
  8
FORMAT
 62
     0
100
AcDbLine
 10
0.0
 20
0.0
 30
0.0
 11
-2.5
 21
0.0
 31
0.0
  0
LINE
  5
B8
330
B3
100
AcDbEntity
  8
FORMAT
 62
     0
100
AcDbLine
 10
0.0
 20
0.0
 30
0.0
 11
0.0
 21
-2.5
 31
0.0
  0
LINE
  5
B9
330
B3
100
AcDbEntity
  8
FORMAT
 62
     0
100
AcDbLine
 10
0.0
 20
0.0
 30
0.0
 11
2.5
 21
0.0
 31
0.0
  0
LINE
  5
BA
330
B3
100
AcDbEntity
  8
FORMAT
 62
     0
100
AcDbLine
 10
0.0
 20
5.0
 30
0.0
 11
0.0
 21
12.5
 31
0.0
  0
LINE
  5
BB
330
B3
100
AcDbEntity
  8
FORMAT
 62
     0
100
AcDbLine
 10
-5.0
 20
0.0
 30
0.0
 11
-12.5
 21
0.0
 31
0.0
  0
LINE
  5
BC
330
B3
100
AcDbEntity
  8
FORMAT
 62
     0
100
AcDbLine
 10
0.0
 20
-5.0
 30
0.0
 11
0.0
 21
-12.5
 31
0.0
  0
LINE
  5
BD
330
B3
100
AcDbEntity
  8
FORMAT
 62
     0
100
AcDbLine
 10
5.0
 20
0.0
 30
0.0
 11
12.5
 21
0.0
 31
0.0
  0
ENDBLK
  5
B5
330
B3
100
AcDbEntity
  8
0
100
AcDbBlockEnd
  0
BLOCK
  5
C0
330
BF
100
AcDbEntity
  8
0
100
AcDbBlockBegin
  2
SW_CENTERMARKSYMBOL_4
 70
     0
 10
0.0
 20
0.0
 30
0.0
  3
SW_CENTERMARKSYMBOL_4
  1

  0
LINE
  5
C2
330
BF
100
AcDbEntity
  8
FORMAT
 62
     0
100
AcDbLine
 10
0.0
 20
0.0
 30
0.0
 11
0.0
 21
2.5
 31
0.0
  0
LINE
  5
C3
330
BF
100
AcDbEntity
  8
FORMAT
 62
     0
100
AcDbLine
 10
0.0
 20
0.0
 30
0.0
 11
-2.5
 21
0.0
 31
0.0
  0
LINE
  5
C4
330
BF
100
AcDbEntity
  8
FORMAT
 62
     0
100
AcDbLine
 10
0.0
 20
0.0
 30
0.0
 11
0.0
 21
-2.5
 31
0.0
  0
LINE
  5
C5
330
BF
100
AcDbEntity
  8
FORMAT
 62
     0
100
AcDbLine
 10
0.0
 20
0.0
 30
0.0
 11
2.5
 21
0.0
 31
0.0
  0
LINE
  5
C6
330
BF
100
AcDbEntity
  8
FORMAT
 62
     0
100
AcDbLine
 10
0.0
 20
5.0
 30
0.0
 11
0.0
 21
12.5
 31
0.0
  0
LINE
  5
C7
330
BF
100
AcDbEntity
  8
FORMAT
 62
     0
100
AcDbLine
 10
-5.0
 20
0.0
 30
0.0
 11
-12.5
 21
0.0
 31
0.0
  0
LINE
  5
C8
330
BF
100
AcDbEntity
  8
FORMAT
 62
     0
100
AcDbLine
 10
0.0
 20
-5.0
 30
0.0
 11
0.0
 21
-12.5
 31
0.0
  0
LINE
  5
C9
330
BF
100
AcDbEntity
  8
FORMAT
 62
     0
100
AcDbLine
 10
5.0
 20
0.0
 30
0.0
 11
12.5
 21
0.0
 31
0.0
  0
ENDBLK
  5
C1
330
BF
100
AcDbEntity
  8
0
100
AcDbBlockEnd
  0
ENDSEC
  0
SECTION
  2
ENTITIES
  0
CIRCLE
  5
83
330
1F
100
AcDbEntity
  8
0
  6
Continuous
 62
     7
370
    25
100
AcDbCircle
 10
137.8667640332
 20
27.3638469371
 30
0.0
 40
11.0
  0
CIRCLE
  5
84
330
1F
100
AcDbEntity
  8
0
  6
Continuous
 62
     7
370
    25
100
AcDbCircle
 10
137.8667640332
 20
179.7638469371
 30
0.0
 40
11.0
  0
CIRCLE
  5
85
330
1F
100
AcDbEntity
  8
0
  6
Continuous
 62
     7
370
    25
100
AcDbCircle
 10
137.8667640332
 20
103.5638469371
 30
0.0
 40
96.0
  0
CIRCLE
  5
86
330
1F
100
AcDbEntity
  8
0
  6
Continuous
 62
     7
370
    25
100
AcDbCircle
 10
137.8667640332
 20
103.5638469371
 30
0.0
 40
56.5
  0
CIRCLE
  5
87
330
1F
100
AcDbEntity
  8
0
  6
Continuous
 62
     7
370
    25
100
AcDbCircle
 10
214.0667640332
 20
103.5638469371
 30
0.0
 40
11.0
  0
CIRCLE
  5
88
330
1F
100
AcDbEntity
  8
0
  6
Continuous
 62
     7
370
    25
100
AcDbCircle
 10
61.6667640332
 20
103.5638469371
 30
0.0
 40
11.0
  0
CIRCLE
  5
89
330
1F
100
AcDbEntity
  8
0
  6
Continuous
 62
     7
370
    25
100
AcDbCircle
 10
137.8667640332
 20
103.5638469371
 30
0.0
 40
55.5
  0
CIRCLE
  5
8A
330
1F
100
AcDbEntity
  8
0
  6
Continuous
 62
     7
370
    25
100
AcDbCircle
 10
137.8667640332
 20
103.5638469371
 30
0.0
 40
97.0
  0
CIRCLE
  5
8B
330
1F
100
AcDbEntity
  8
0
  6
Continuous
 62
     7
370
    25
100
AcDbCircle
 10
137.8667640332
 20
179.7638469371
 30
0.0
 40
10.0
  0
CIRCLE
  5
8C
330
1F
100
AcDbEntity
  8
0
  6
Continuous
 62
     7
370
    25
100
AcDbCircle
 10
61.6667640332
 20
103.5638469371
 30
0.0
 40
10.0
  0
CIRCLE
  5
8D
330
1F
100
AcDbEntity
  8
0
  6
Continuous
 62
     7
370
    25
100
AcDbCircle
 10
214.0667640332
 20
103.5638469371
 30
0.0
 40
10.0
  0
CIRCLE
  5
8E
330
1F
100
AcDbEntity
  8
0
  6
Continuous
 62
     7
370
    25
100
AcDbCircle
 10
137.8667640332
 20
27.3638469371
 30
0.0
 40
10.0
  0
INSERT
  5
9A
330
1F
100
AcDbEntity
  8
FORMAT
 62
     7
100
AcDbBlockReference
  2
SW_CENTERMARKSYMBOL_0
 10
137.8667640332
 20
103.5638469371
 30
0.0
  0
INSERT
  5
A6
330
1F
100
AcDbEntity
  8
FORMAT
 62
     7
100
AcDbBlockReference
  2
SW_CENTERMARKSYMBOL_1
 10
137.8667640332
 20
179.7638469371
 30
0.0
  0
INSERT
  5
B2
330
1F
100
AcDbEntity
  8
FORMAT
 62
     7
100
AcDbBlockReference
  2
SW_CENTERMARKSYMBOL_2
 10
214.0667640332
 20
103.5638469371
 30
0.0
  0
INSERT
  5
BE
330
1F
100
AcDbEntity
  8
FORMAT
 62
     7
100
AcDbBlockReference
  2
SW_CENTERMARKSYMBOL_3
 10
137.8667640332
 20
27.3638469371
 30
0.0
  0
INSERT
  5
CA
330
1F
100
AcDbEntity
  8
FORMAT
 62
     7
100
AcDbBlockReference
  2
SW_CENTERMARKSYMBOL_4
 10
61.6667640332
 20
103.5638469371
 30
0.0
  0
LINE
  5
CB
330
1F
100
AcDbEntity
  8
0
  6
Continuous
 62
     7
370
    25
100
AcDbLine
 10
-52.645596111
 20
200.5638469371
 30
0.0
 11
-70.645596111
 21
200.5638469371
 31
0.0
  0
LINE
  5
CC
330
1F
100
AcDbEntity
  8
0
  6
Continuous
 62
     7
370
    25
100
AcDbLine
 10
-70.645596111
 20
6.5638469371
 30
0.0
 11
-52.645596111
 21
6.5638469371
 31
0.0
  0
ARC
  5
CD
330
1F
100
AcDbEntity
  8
0
  6
Continuous
 62
     7
370
    25
100
AcDbCircle
 10
-52.645596111
 20
7.5638469371
 30
0.0
 40
1.000000000000007
100
AcDbArc
 50
270.0
 51
0.0
  0
ARC
  5
CE
330
1F
100
AcDbEntity
  8
0
  6
Continuous
 62
     7
370
    25
100
AcDbCircle
 10
-52.645596111
 20
199.5638469371
 30
0.0
 40
1.000000000000007
100
AcDbArc
 50
0.0
 51
90.0
  0
ARC
  5
CF
330
1F
100
AcDbEntity
  8
0
  6
Continuous
 62
     7
370
    25
100
AcDbCircle
 10
-70.645596111
 20
7.5638469371
 30
0.0
 40
1.000000000000014
100
AcDbArc
 50
180.0
 51
270.0
  0
ARC
  5
D0
330
1F
100
AcDbEntity
  8
0
  6
Continuous
 62
     7
370
    25
100
AcDbCircle
 10
-70.645596111
 20
199.5638469371
 30
0.0
 40
1.000000000000014
100
AcDbArc
 50
90.0
 51
180.0
  0
LINE
  5
D1
330
1F
100
AcDbEntity
  8
0
  6
Continuous
 62
     7
370
    25
100
AcDbLine
 10
-51.645596111
 20
103.5638469371
 30
0.0
 11
-51.645596111
 21
7.5638469371
 31
0.0
  0
LINE
  5
D2
330
1F
100
AcDbEntity
  8
0
  6
Continuous
 62
     7
370
    25
100
AcDbLine
 10
-51.645596111
 20
199.5638469371
 30
0.0
 11
-51.645596111
 21
103.5638469371
 31
0.0
  0
LINE
  5
D3
330
1F
100
AcDbEntity
  8
0
  6
Continuous
 62
     7
370
    25
100
AcDbLine
 10
-71.645596111
 20
103.5638469371
 30
0.0
 11
-71.645596111
 21
199.5638469371
 31
0.0
  0
LINE
  5
D4
330
1F
100
AcDbEntity
  8
0
  6
Continuous
 62
     7
370
    25
100
AcDbLine
 10
-71.645596111
 20
7.5638469371
 30
0.0
 11
-71.645596111
 21
103.5638469371
 31
0.0
  0
LINE
  5
D5
330
1F
100
AcDbEntity
  8
0
  6
Continuous
 62
     1
370
    25
100
AcDbLine
 10
-70.645596111
 20
103.5638469371
 30
0.0
 11
-70.645596111
 21
6.5638469371
 31
0.0
  0
LINE
  5
D6
330
1F
100
AcDbEntity
  8
0
  6
Continuous
 62
     1
370
    25
100
AcDbLine
 10
-70.645596111
 20
200.5638469371
 30
0.0
 11
-70.645596111
 21
103.5638469371
 31
0.0
  0
LINE
  5
D7
330
1F
100
AcDbEntity
  8
0
  6
Continuous
 62
     1
370
    25
100
AcDbLine
 10
-52.645596111
 20
103.5638469371
 30
0.0
 11
-52.645596111
 21
200.5638469371
 31
0.0
  0
LINE
  5
D8
330
1F
100
AcDbEntity
  8
0
  6
Continuous
 62
     1
370
    25
100
AcDbLine
 10
-52.645596111
 20
6.5638469371
 30
0.0
 11
-52.645596111
 21
103.5638469371
 31
0.0
  0
LINE
  5
D9
330
1F
100
AcDbEntity
  8
0
  6
Continuous
 62
     7
370
    25
100
AcDbLine
 10
318.4468835886
 20
6.5638469371
 30
0.0
 11
336.4468835886
 21
6.5638469371
 31
0.0
  0
LINE
  5
DA
330
1F
100
AcDbEntity
  8
0
  6
Continuous
 62
     7
370
    25
100
AcDbLine
 10
336.4468835886
 20
200.5638469371
 30
0.0
 11
318.4468835886
 21
200.5638469371
 31
0.0
  0
ARC
  5
DB
330
1F
100
AcDbEntity
  8
0
  6
Continuous
 62
     7
370
    25
100
AcDbCircle
 10
318.4468835886
 20
199.5638469371
 30
0.0
 40
1.0
100
AcDbArc
 50
90.0
 51
180.0
  0
ARC
  5
DC
330
1F
100
AcDbEntity
  8
0
  6
Continuous
 62
     7
370
    25
100
AcDbCircle
 10
318.4468835886
 20
7.5638469371
 30
0.0
 40
1.0
100
AcDbArc
 50
180.0
 51
270.0
  0
ARC
  5
DD
330
1F
100
AcDbEntity
  8
0
  6
Continuous
 62
     7
370
    25
100
AcDbCircle
 10
336.4468835886
 20
199.5638469371
 30
0.0
 40
1.0
100
AcDbArc
 50
0.0
 51
90.0
  0
ARC
  5
DE
330
1F
100
AcDbEntity
  8
0
  6
Continuous
 62
     7
370
    25
100
AcDbCircle
 10
336.4468835886
 20
7.5638469371
 30
0.0
 40
1.0
100
AcDbArc
 50
270.0
 51
0.0
  0
LINE
  5
DF
330
1F
100
AcDbEntity
  8
0
  6
Continuous
 62
     7
370
    25
100
AcDbLine
 10
317.4468835886
 20
7.5638469371
 30
0.0
 11
317.4468835886
 21
199.5638469371
 31
0.0
  0
LINE
  5
E0
330
1F
100
AcDbEntity
  8
0
  6
Continuous
 62
     7
370
    25
100
AcDbLine
 10
337.4468835886
 20
199.5638469371
 30
0.0
 11
337.4468835886
 21
7.5638469371
 31
0.0
  0
LINE
  5
E1
330
1F
100
AcDbEntity
  8
0
  6
Continuous
 62
     1
370
    25
100
AcDbLine
 10
336.4468835886
 20
6.5638469371
 30
0.0
 11
336.4468835886
 21
200.5638469371
 31
0.0
  0
LINE
  5
E2
330
1F
100
AcDbEntity
  8
0
  6
Continuous
 62
     1
370
    25
100
AcDbLine
 10
318.4468835886
 20
200.5638469371
 30
0.0
 11
318.4468835886
 21
6.5638469371
 31
0.0
  0
LINE
  5
E3
330
1F
100
AcDbEntity
  8
0
  6
Continuous
 62
     7
370
    25
100
AcDbLine
 10
234.8667640332
 20
260.8592958761
 30
0.0
 11
234.8667640332
 21
278.8592958761
 31
0.0
  0
LINE
  5
E4
330
1F
100
AcDbEntity
  8
0
  6
Continuous
 62
     7
370
    25
100
AcDbLine
 10
40.8667640332
 20
278.8592958761
 30
0.0
 11
40.8667640332
 21
260.8592958761
 31
0.0
  0
ARC
  5
E5
330
1F
100
AcDbEntity
  8
0
  6
Continuous
 62
     7
370
    25
100
AcDbCircle
 10
41.8667640332
 20
260.8592958761
 30
0.0
 40
1.0
100
AcDbArc
 50
180.0
 51
270.0
  0
ARC
  5
E6
330
1F
100
AcDbEntity
  8
0
  6
Continuous
 62
     7
370
    25
100
AcDbCircle
 10
233.8667640332
 20
260.8592958761
 30
0.0
 40
1.0
100
AcDbArc
 50
270.0
 51
0.0
  0
ARC
  5
E7
330
1F
100
AcDbEntity
  8
0
  6
Continuous
 62
     7
370
    25
100
AcDbCircle
 10
41.8667640332
 20
278.8592958761
 30
0.0
 40
1.0
100
AcDbArc
 50
90.0
 51
180.0
  0
ARC
  5
E8
330
1F
100
AcDbEntity
  8
0
  6
Continuous
 62
     7
370
    25
100
AcDbCircle
 10
233.8667640332
 20
278.8592958761
 30
0.0
 40
1.0
100
AcDbArc
 50
0.0
 51
90.0
  0
LINE
  5
E9
330
1F
100
AcDbEntity
  8
0
  6
Continuous
 62
     7
370
    25
100
AcDbLine
 10
233.8667640332
 20
259.8592958761
 30
0.0
 11
41.8667640332
 21
259.8592958761
 31
0.0
  0
LINE
  5
EA
330
1F
100
AcDbEntity
  8
0
  6
Continuous
 62
     7
370
    25
100
AcDbLine
 10
41.8667640332
 20
279.8592958761
 30
0.0
 11
233.8667640332
 21
279.8592958761
 31
0.0
  0
LINE
  5
EB
330
1F
100
AcDbEntity
  8
0
  6
Continuous
 62
     1
370
    25
100
AcDbLine
 10
234.8667640332
 20
278.8592958761
 30
0.0
 11
40.8667640332
 21
278.8592958761
 31
0.0
  0
LINE
  5
EC
330
1F
100
AcDbEntity
  8
0
  6
Continuous
 62
     1
370
    25
100
AcDbLine
 10
40.8667640332
 20
260.8592958761
 30
0.0
 11
234.8667640332
 21
260.8592958761
 31
0.0
  0
LINE
  5
ED
330
1F
100
AcDbEntity
  8
0
  6
Continuous
 62
     7
370
    25
100
AcDbLine
 10
40.8667640332
 20
-103.2214777473
 30
0.0
 11
40.8667640332
 21
-121.2214777473
 31
0.0
  0
LINE
  5
EE
330
1F
100
AcDbEntity
  8
0
  6
Continuous
 62
     7
370
    25
100
AcDbLine
 10
234.8667640332
 20
-121.2214777473
 30
0.0
 11
234.8667640332
 21
-103.2214777473
 31
0.0
  0
ARC
  5
EF
330
1F
100
AcDbEntity
  8
0
  6
Continuous
 62
     7
370
    25
100
AcDbCircle
 10
233.8667640332
 20
-103.2214777473
 30
0.0
 40
1.0
100
AcDbArc
 50
0.0
 51
90.0
  0
ARC
  5
F0
330
1F
100
AcDbEntity
  8
0
  6
Continuous
 62
     7
370
    25
100
AcDbCircle
 10
41.8667640332
 20
-103.2214777473
 30
0.0
 40
1.0
100
AcDbArc
 50
90.0
 51
180.0
  0
ARC
  5
F1
330
1F
100
AcDbEntity
  8
0
  6
Continuous
 62
     7
370
    25
100
AcDbCircle
 10
233.8667640332
 20
-121.2214777473
 30
0.0
 40
1.000000000000014
100
AcDbArc
 50
270.0
 51
0.0
  0
ARC
  5
F2
330
1F
100
AcDbEntity
  8
0
  6
Continuous
 62
     7
370
    25
100
AcDbCircle
 10
41.8667640332
 20
-121.2214777473
 30
0.0
 40
1.000000000000014
100
AcDbArc
 50
180.0
 51
270.0
  0
LINE
  5
F3
330
1F
100
AcDbEntity
  8
0
  6
Continuous
 62
     7
370
    25
100
AcDbLine
 10
41.8667640332
 20
-102.2214777473
 30
0.0
 11
233.8667640332
 21
-102.2214777473
 31
0.0
  0
LINE
  5
F4
330
1F
100
AcDbEntity
  8
0
  6
Continuous
 62
     7
370
    25
100
AcDbLine
 10
233.8667640332
 20
-122.2214777473
 30
0.0
 11
41.8667640332
 21
-122.2214777473
 31
0.0
  0
LINE
  5
F5
330
1F
100
AcDbEntity
  8
0
  6
Continuous
 62
     1
370
    25
100
AcDbLine
 10
40.8667640332
 20
-121.2214777473
 30
0.0
 11
234.8667640332
 21
-121.2214777473
 31
0.0
  0
LINE
  5
F6
330
1F
100
AcDbEntity
  8
0
  6
Continuous
 62
     1
370
    25
100
AcDbLine
 10
234.8667640332
 20
-103.2214777473
 30
0.0
 11
40.8667640332
 21
-103.2214777473
 31
0.0
  0
SPLINE
  5
F7
330
1F
100
AcDbEntity
  8
0
  6
Continuous
 62
     7
370
    25
100
AcDbSpline
210
0.0
220
0.0
230
1.0
 70
     8
 71
     3
 72
    77
 73
    73
 74
     0
 42
0.00000001
 43
0.00000001
 40
0.0
 40
0.0
 40
0.0
 40
0.0
 40
0.0064763365609807
 40
0.0209305925524981
 40
0.0353991405824382
 40
0.049883990160445
 40
0.0643859933058727
 40
0.0789049596863687
 40
0.0934398605882914
 40
0.1079890742295955
 40
0.1225506301431828
 40
0.1371224224990698
 40
0.1517023763128722
 40
0.1662885626923366
 40
0.1808792676906639
 40
0.1954730237522382
 40
0.2100686139670798
 40
0.2246650585527792
 40
0.2392614344979002
 40
0.2538571601880196
 40
0.2684518574152966
 40
0.2830452684179238
 40
0.2976372324638706
 40
0.3122276658085567
 40
0.3268165449604303
 40
0.3414038929821524
 40
0.3559897684590455
 40
0.3705742567413715
 40
0.3851574630824517
 40
0.3997395073308035
 40
0.4143205198787418
 40
0.4289006386150019
 40
0.4434800066708362
 40
0.4580587707858342
 40
0.4726370801508024
 40
0.4872150856102425
 40
0.5017929391269751
 40
0.5163707934262517
 40
0.5309487677667445
 40
0.5455269986649116
 40
0.5601056398667115
 40
0.57468484499848
 40
0.589264767150829
 40
0.6038455582552205
 40
0.6184273681619838
 40
0.6330103433137587
 40
0.6475946248858873
 40
0.662180346237087
 40
0.6767676294794357
 40
0.6913565809364937
 40
0.7059472852130391
 40
0.7205397975519161
 40
0.7351341341077892
 40
0.7497302597326486
 40
0.7643280728587327
 40
0.7789273871039415
 40
0.7935279093478479
 40
0.808129214282256
 40
0.822730574455721
 40
0.8373310506853422
 40
0.8519295665053928
 40
0.8665247922533859
 40
0.8811151341454855
 40
0.8956987441603365
 40
0.9102735609579569
 40
0.9248373925215391
 40
0.9393880491666456
 40
0.9539235298028207
 40
0.9684422541682065
 40
0.9829433198626488
 40
0.9974267481170787
 40
1.0
 40
1.0
 40
1.0
 40
1.0
 10
390.8832206644441
 20
-44.98451586120808
 30
0.0
 10
390.5408708780515
 20
-44.87668507534868
 30
0.0
 10
389.4344453824109
 20
-44.52819141350947
 30
0.0
 10
387.4890371082651
 20
-44.10161385784161
 30
0.0
 10
385.0544227985146
 20
-43.70005409685631
 30
0.0
 10
382.5532139282176
 20
-43.46187459631408
 30
0.0
 10
379.9948357326974
 20
-43.3765323001783
 30
0.0
 10
377.382345945059
 20
-43.44735435052075
 30
0.0
 10
374.7207405045566
 20
-43.67357900229854
 30
0.0
 10
372.0146935156844
 20
-44.05514737218283
 30
0.0
 10
369.269124783066
 20
-44.59140174291124
 30
0.0
 10
366.4890065058457
 20
-45.28143199110836
 30
0.0
 10
363.6793772077168
 20
-46.12398978073891
 30
0.0
 10
360.8453059922231
 20
-47.11752547658679
 30
0.0
 10
357.9918770542444
 20
-48.2601956090073
 30
0.0
 10
355.1241752872692
 20
-49.54987912715794
 30
0.0
 10
352.2472769361125
 20
-50.98419046564556
 30
0.0
 10
349.3662530689313
 20
-52.56048608851339
 30
0.0
 10
346.4861542528135
 20
-54.27587825222368
 30
0.0
 10
343.612002976244
 20
-56.12724610438717
 30
0.0
 10
340.7487798904468
 20
-58.11125178603539
 30
0.0
 10
337.9014305019664
 20
-60.22434197962187
 30
0.0
 10
335.074864150858
 20
-62.46275181043934
 30
0.0
 10
332.2739487157654
 20
-64.82251080238343
 30
0.0
 10
329.5035047830891
 20
-67.29944887615787
 30
0.0
 10
326.7682993428642
 20
-69.88920253688113
 30
0.0
 10
324.0730390939103
 20
-72.58722135199426
 30
0.0
 10
321.4223634473199
 20
-75.3887747833912
 30
0.0
 10
318.8208373156228
 20
-78.28895940933475
 30
0.0
 10
316.2729437687635
 20
-81.28270655073602
 30
0.0
 10
313.7830766298171
 20
-84.36479030131284
 30
0.0
 10
311.3555330746813
 20
-87.52983595061554
 30
0.0
 10
308.9945062916645
 20
-90.77232878173899
 30
0.0
 10
306.7040782493911
 20
-94.0866232207826
 30
0.0
 10
304.4882126149537
 20
-97.46695231197218
 30
0.0
 10
302.3507478586693
 20
-100.9074374904527
 30
0.0
 10
300.295390577437
 20
-104.4020986229557
 30
0.0
 10
298.3257105944949
 20
-107.9448615344644
 30
0.0
 10
296.4451336923621
 20
-111.5295697003969
 30
0.0
 10
294.6569348120747
 20
-115.1499963181935
 30
0.0
 10
292.9642312557568
 20
-118.7998580717621
 30
0.0
 10
291.3699784242311
 20
-122.4728247685218
 30
0.0
 10
289.876965683704
 20
-126.1625289293854
 30
0.0
 10
288.4878118606198
 20
-129.8625768119916
 30
0.0
 10
287.2049611106498
 20
-133.5665594266838
 30
0.0
 10
286.0306791711226
 20
-137.2680634992342
 30
0.0
 10
284.9670500019847
 20
-140.9606823301696
 30
0.0
 10
284.015972814929
 20
-144.6380264953594
 30
0.0
 10
283.1791594828956
 20
-148.2937343267471
 30
0.0
 10
282.4581323120819
 20
-151.9214821059734
 30
0.0
 10
281.8542221450626
 20
-155.5149938976874
 30
0.0
 10
281.3685667456917
 20
-159.0680509444689
 30
0.0
 10
281.0021093931441
 20
-162.574500542982
 30
0.0
 10
280.7555975829339
 20
-166.0282643235118
 30
0.0
 10
280.6295816963942
 20
-169.4233458658333
 30
0.0
 10
280.6244134580638
 20
-172.753837607861
 30
0.0
 10
280.7402439525362
 20
-176.0139270470254
 30
0.0
 10
280.9770201683355
 20
-179.1978920205158
 30
0.0
 10
281.3344789636513
 20
-182.3001057975764
 30
0.0
 10
281.8121405452073
 20
-185.315049761735
 30
0.0
 10
282.4093030137201
 20
-188.2373288198741
 30
0.0
 10
283.1250358175903
 20
-191.0616779929263
 30
0.0
 10
283.9581674142078
 20
-193.7829682993884
 30
0.0
 10
284.9072815572289
 20
-196.3962104777541
 30
0.0
 10
285.9706826959586
 20
-198.8966088564673
 30
0.0
 10
287.1464817583777
 20
-201.2794503069143
 30
0.0
 10
288.4322481406331
 20
-203.5406322475523
 30
0.0
 10
289.8263055072718
 20
-205.6748311775115
 30
0.0
 10
291.3229418780676
 20
-207.6824773911601
 30
0.0
 10
292.9303426732143
 20
-209.5439191852987
 30
0.0
 10
294.145824652398
 20
-210.8307933136201
 30
0.0
 10
294.8535435863884
 20
-211.4537224770763
 30
0.0
 10
294.9603134305083
 20
-211.5477005331741
 30
0.0
  0
LINE
  5
F8
330
1F
100
AcDbEntity
  8
0
  6
Continuous
 62
     7
370
    25
100
AcDbLine
 10
410.7381576158
 20
-55.3808406614
 30
0.0
 11
398.0102355545
 21
-48.033167655
 31
0.0
  0
LINE
  5
F9
330
1F
100
AcDbEntity
  8
0
  6
Continuous
 62
     7
370
    25
100
AcDbLine
 10
301.0181184888
 20
-216.0466469569
 30
0.0
 11
313.7460405501
 21
-223.3943199633
 31
0.0
  0
SPLINE
  5
FA
330
1F
100
AcDbEntity
  8
0
  6
Continuous
 62
     7
370
    25
100
AcDbSpline
210
0.0
220
0.0
230
1.0
 70
     8
 71
     3
 72
    61
 73
    57
 74
     0
 42
0.00000001
 43
0.00000001
 40
0.0
 40
0.0
 40
0.0
 40
0.0
 40
0.0070071182756472
 40
0.0257246383898793
 40
0.0444604310008617
 40
0.0632172036286656
 40
0.0819961602269584
 40
0.1007971401597658
 40
0.1196188763718384
 40
0.1384593112771046
 40
0.1573159147896722
 40
0.1761859642381862
 40
0.1950667641484479
 40
0.213955799960662
 40
0.2328508310172214
 40
0.2517499342111187
 40
0.2706515115171401
 40
0.2895542737292752
 40
0.3084570241605259
 40
0.3273589729965312
 40
0.3462596184298499
 40
0.3651586168875539
 40
0.3840557524112023
 40
0.4029509103979091
 40
0.4218440556416675
 40
0.4407352143356263
 40
0.4596244595633638
 40
0.4785118997698993
 40
0.4973976697204045
 40
0.5162819235002385
 40
0.5351648291669163
 40
0.5540465647230767
 40
0.5729273151342973
 40
0.5918072701636297
 40
0.6106866228355972
 40
0.6295655683754966
 40
0.6484443034962093
 40
0.6673230259243793
 40
0.6862018946383126
 40
0.7050810818333857
 40
0.7239607866103206
 40
0.7428412079452051
 40
0.76172254416493
 40
0.7806049921621273
 40
0.799488746232044
 40
0.8183739963958349
 40
0.8372609260461499
 40
0.8561497087148655
 40
0.8750405037190254
 40
0.8939334503894081
 40
0.9128286605278356
 40
0.9317262086773545
 40
0.9506261197295576
 40
0.969528353346791
 40
0.9884327846618208
 40
1.0
 40
1.0
 40
1.0
 40
1.0
 10
320.8831693964435
 20
-226.4471477844393
 30
0.0
 10
321.1687081955188
 20
-226.5382583281257
 30
0.0
 10
322.2169825450501
 20
-226.8727447314713
 30
0.0
 10
324.1013689950802
 20
-227.2921512190213
 30
0.0
 10
326.5310682785988
 20
-227.7052995629266
 30
0.0
 10
329.028204957368
 20
-227.9539472636557
 30
0.0
 10
331.5826622762652
 20
-228.0501054296336
 30
0.0
 10
334.1915847337376
 20
-227.9900289495062
 30
0.0
 10
336.8499371060188
 20
-227.7745653740282
 30
0.0
 10
339.5530683573472
 20
-227.4037226013992
 30
0.0
 10
342.2960621826973
 20
-226.8781434307942
 30
0.0
 10
345.0739523517904
 20
-226.1987135455177
 30
0.0
 10
347.8817031917779
 20
-225.3666601484069
 30
0.0
 10
350.7142472932513
 20
-224.3835119615863
 30
0.0
 10
353.5665009516236
 20
-223.2510927374536
 30
0.0
 10
356.4333789917119
 20
-221.9715047398683
 30
0.0
 10
359.3098043220765
 20
-220.5471156536378
 30
0.0
 10
362.1907054720189
 20
-218.9805514176938
 30
0.0
 10
365.0710300733477
 20
-217.2746833076705
 30
0.0
 10
367.9457535803429
 20
-215.432616331628
 30
0.0
 10
370.8098922068323
 20
-213.4576737087985
 30
0.0
 10
373.6584981259043
 20
-211.353393899806
 30
0.0
 10
376.4866593317094
 20
-209.1235273375617
 30
0.0
 10
379.2895048957262
 20
-206.7720304677424
 30
0.0
 10
382.0622107622416
 20
-204.3030597588164
 30
0.0
 10
384.8000060222426
 20
-201.7209655312691
 30
0.0
 10
387.4981795840895
 20
-199.0302855022071
 30
0.0
 10
390.1520871520236
 20
-196.2357379791572
 30
0.0
 10
392.7571584248753
 20
-193.3422146657874
 30
0.0
 10
395.3089044333229
 20
-190.3547730637267
 30
0.0
 10
397.8029249421732
 20
-187.278628470091
 30
0.0
 10
400.2349158528378
 20
-184.1191455811137
 30
0.0
 10
402.6006765495272
 20
-180.8818297196579
 30
0.0
 10
404.8961171402565
 20
-177.5723177092782
 30
0.0
 10
407.1172655503171
 20
-174.1963684207381
 30
0.0
 10
409.2602744314988
 20
-170.7598530188784
 30
0.0
 10
411.3214278548027
 20
-167.2687449394934
 30
0.0
 10
413.2971463833147
 20
-163.7291120900461
 30
0.0
 10
415.1839940161269
 20
-160.147105733093
 30
0.0
 10
416.9786851939677
 20
-156.5289481594245
 30
0.0
 10
418.6780915005141
 20
-152.8809192290668
 30
0.0
 10
420.2792462253628
 20
-149.2093461485967
 30
0.0
 10
421.779348369048
 20
-145.5205941719014
 30
0.0
 10
423.1757671666402
 20
-141.8210555821018
 30
0.0
 10
424.4660462710208
 20
-138.1171386586516
 30
0.0
 10
425.6479074300198
 20
-134.4152567652382
 30
0.0
 10
426.7192542350865
 20
-130.7218172730698
 30
0.0
 10
427.6781737650747
 20
-127.0432116257028
 30
0.0
 10
428.5229442557662
 20
-123.3858019359416
 30
0.0
 10
429.252018490415
 20
-119.7559216136723
 30
0.0
 10
429.8640961230728
 20
-116.1598250292951
 30
0.0
 10
430.357862509208
 20
-112.6038291710608
 30
0.0
 10
430.7329710943026
 20
-109.0937407689374
 30
0.0
 10
430.9863830064201
 20
-105.6369530930786
 30
0.0
 10
431.1079640922172
 20
-102.6748781171476
 30
0.0
 10
431.1198413865032
 20
-100.880969246939
 30
0.0
 10
431.1243500769
 20
-100.1999909448823
 30
0.0
  0
SPLINE
  5
FB
330
1F
100
AcDbEntity
  8
0
  6
Continuous
 62
     7
370
    25
100
AcDbSpline
210
0.0
220
0.0
230
1.0
 70
     8
 71
     3
 72
    24
 73
    20
 74
     0
 42
0.00000001
 43
0.00000001
 40
0.0
 40
0.0
 40
0.0
 40
0.0
 40
0.0335409046407841
 40
0.0972273526941909
 40
0.1609216443724215
 40
0.2246158904907742
 40
0.2883059894724302
 40
0.3519871719527009
 40
0.415653558664155
 40
0.4792981177674845
 40
0.5429127158289141
 40
0.6064883074360469
 40
0.6700153098719028
 40
0.7334841993954208
 40
0.7968863392728045
 40
0.8602150040538304
 40
0.923466503176294
 40
0.9866412424266869
 40
1.0
 40
1.0
 40
1.0
 40
1.0
 10
431.1243500769
 20
-100.1999909448823
 30
0.0
 10
431.120975733652
 20
-99.61787129459785
 30
0.0
 10
431.1111942902293
 20
-97.93044058410925
 30
0.0
 10
431.0025179567633
 20
-95.1912735686372
 30
0.0
 10
430.7586832695357
 20
-92.01215273231314
 30
0.0
 10
430.3925444172073
 20
-88.91598892333033
 30
0.0
 10
429.9066840901991
 20
-85.90723223033825
 30
0.0
 10
429.3012618952311
 20
-82.99157309673954
 30
0.0
 10
428.5773740870348
 20
-80.1741859396631
 30
0.0
 10
427.7361690675507
 20
-77.46021197919424
 30
0.0
 10
426.7790917178031
 20
-74.85462349766073
 30
0.0
 10
425.7078520745412
 20
-72.36220673114889
 30
0.0
 10
424.5243619717868
 20
-69.98765583469623
 30
0.0
 10
423.2310576170432
 20
-67.73507432689011
 30
0.0
 10
421.829680288192
 20
-65.60970418039929
 30
0.0
 10
420.3257822774821
 20
-63.61132981765356
 30
0.0
 10
418.7118471689675
 20
-61.75870423792347
 30
0.0
 10
417.4714454976777
 20
-60.46043543928954
 30
0.0
 10
416.7404126760297
 20
-59.82416629427173
 30
0.0
 10
416.6128124663461
 20
-59.71310688091118
 30
0.0
  0
SPLINE
  5
FC
330
1F
100
AcDbEntity
  8
0
  6
Continuous
 62
     7
370
    25
100
AcDbSpline
210
0.0
220
0.0
230
1.0
 70
     8
 71
     3
 72
    20
 73
    16
 74
     0
 42
0.00000001
 43
0.00000001
 40
0.0
 40
0.0
 40
0.0
 40
0.0
 40
0.0410801545384668
 40
0.1257186526065953
 40
0.2101250245792724
 40
0.294278191829467
 40
0.3781877475588122
 40
0.4618835073004485
 40
0.5454050324370787
 40
0.6287936081536826
 40
0.7120872446054833
 40
0.7953182214698297
 40
0.8785123784467809
 40
0.9616894242750916
 40
1.0
 40
1.0
 40
1.0
 40
1.0
 10
380.3616518424101
 20
-86.2646370744649
 30
0.0
 10
380.5753526890771
 20
-86.45269647896845
 30
0.0
 10
381.2293468817886
 20
-87.02821950729695
 30
0.0
 10
382.2226131953094
 20
-88.14166851920766
 30
0.0
 10
383.3412832302099
 20
-89.59163499612346
 30
0.0
 10
384.3520097732972
 20
-91.17753111859633
 30
0.0
 10
385.2583345017803
 20
-92.88465283363503
 30
0.0
 10
386.0562520713155
 20
-94.7103987816666
 30
0.0
 10
386.7441142204677
 20
-96.64877461056477
 30
0.0
 10
387.3199581473669
 20
-98.69440788028452
 30
0.0
 10
387.7819971134804
 20
-100.8415018419411
 30
0.0
 10
388.1292572339864
 20
-103.0836202105065
 30
0.0
 10
388.3586646535994
 20
-105.4153167282546
 30
0.0
 10
388.4551179941474
 20
-107.3923717969511
 30
0.0
 10
388.4631707563018
 20
-108.5966229541456
 30
0.0
 10
388.4657101586736
 20
-108.9763781469765
 30
0.0
  0
SPLINE
  5
FD
330
1F
100
AcDbEntity
  8
0
  6
Continuous
 62
     7
370
    25
100
AcDbSpline
210
0.0
220
0.0
230
1.0
 70
     8
 71
     3
 72
    49
 73
    45
 74
     0
 42
0.00000001
 43
0.00000001
 40
0.0
 40
0.0
 40
0.0
 40
0.0
 40
0.0129299790787571
 40
0.0375465571241491
 40
0.0621698196694679
 40
0.0867980057325351
 40
0.1114318756408803
 40
0.1360717156930777
 40
0.1607174704517998
 40
0.1853688433796541
 40
0.2100253712447912
 40
0.2346864780358703
 40
0.2593515132331129
 40
0.2840197783530826
 40
0.308690544849956
 40
0.3333630657631831
 40
0.3580365829575721
 40
0.3827103313961263
 40
0.4073833604435995
 40
0.4320548230739992
 40
0.4567239469878431
 40
0.481389962730139
 40
0.506052109223765
 40
0.5307096429715251
 40
0.5553618525529935
 40
0.5800080805429444
 40
0.604647755607231
 40
0.6292804383133109
 40
0.6539058851033485
 40
0.6785241358361205
 40
0.7031356311156776
 40
0.7277413658968304
 40
0.75234308486714
 40
0.7769433723475446
 40
0.8015449081894516
 40
0.826152711366239
 40
0.8507735455049791
 40
0.8754161153233204
 40
0.9000910581574795
 40
0.9248105519231461
 40
0.9495873171534448
 40
0.9744328096301557
 40
0.9993545613359893
 40
0.9999999999999999
 40
0.9999999999999999
 40
0.9999999999999999
 40
0.9999999999999999
 10
388.4657101586736
 20
-108.9763781469765
 30
0.0
 10
388.4624357359742
 20
-109.4131205545999
 30
0.0
 10
388.4529273448018
 20
-110.6813495019545
 30
0.0
 10
388.3470732093932
 20
-112.8332913351975
 30
0.0
 10
388.1093036166804
 20
-115.4455184113534
 30
0.0
 10
387.7524362045557
 20
-118.1103234961728
 30
0.0
 10
387.27939317205
 20
-120.8181546840516
 30
0.0
 10
386.6908962820003
 20
-123.5610182582923
 30
0.0
 10
385.9887351797959
 20
-126.3303619636231
 30
0.0
 10
385.1748882723448
 20
-129.1176552234315
 30
0.0
 10
384.2517497096376
 20
-131.9142747193849
 30
0.0
 10
383.2220577451448
 20
-134.7115745004802
 30
0.0
 10
382.088901493658
 20
-137.5009051632111
 30
0.0
 10
380.8557053658089
 20
-140.2736454304815
 30
0.0
 10
379.5262184016997
 20
-143.0212293487727
 30
0.0
 10
378.1045013554284
 20
-145.7351737624134
 30
0.0
 10
376.5949135437894
 20
-148.4071049411673
 30
0.0
 10
375.0021028766797
 20
-151.0287783458993
 30
0.0
 10
373.3309901037044
 20
-153.5921087800493
 30
0.0
 10
371.5867522702117
 20
-156.0891988591586
 30
0.0
 10
369.7748022335768
 20
-158.5123698637131
 30
0.0
 10
367.900774315137
 20
-160.8541821731781
 30
0.0
 10
365.9705091695594
 20
-163.107456847924
 30
0.0
 10
363.9900362601923
 20
-165.2652995028091
 30
0.0
 10
361.9655555339311
 20
-167.3211238922756
 30
0.0
 10
359.9034181467902
 20
-169.2686752153576
 30
0.0
 10
357.810106026596
 20
-171.1020531277309
 30
0.0
 10
355.69220997897
 20
-172.815734402291
 30
0.0
 10
353.5564059451889
 20
-174.4045951015506
 30
0.0
 10
351.4094289199141
 20
-175.863931979965
 30
0.0
 10
349.258043919168
 20
-177.1894826573417
 30
0.0
 10
347.1090133986717
 20
-178.3774436488265
 30
0.0
 10
344.9690646307665
 20
-179.4244832809493
 30
0.0
 10
342.8448822800991
 20
-180.3277376632616
 30
0.0
 10
340.7430362671886
 20
-181.0848385672365
 30
0.0
 10
338.6699347263312
 20
-181.6938981565301
 30
0.0
 10
336.6317163423265
 20
-182.1535435878899
 30
0.0
 10
334.6343207004315
 20
-182.4626868599766
 30
0.0
 10
332.6830996149297
 20
-182.6211480982587
 30
0.0
 10
330.7841211058392
 20
-182.6270391114027
 30
0.0
 10
328.9392711054089
 20
-182.4862051916978
 30
0.0
 10
327.1647821840469
 20
-182.1765079092125
 30
0.0
 10
325.9898150603773
 20
-181.9101262289845
 30
0.0
 10
325.4294232509596
 20
-181.7058914227918
 30
0.0
 10
325.4152762705694
 20
-181.7007355555047
 30
0.0
  0
SPLINE
  5
FE
330
1F
100
AcDbEntity
  8
0
  6
Continuous
 62
     7
370
    25
100
AcDbSpline
210
0.0
220
0.0
230
1.0
 70
     8
 71
     3
 72
    14
 73
    10
 74
     0
 42
0.00000001
 43
0.00000001
 40
0.0
 40
0.0
 40
0.0
 40
0.0
 40
0.0664305891095061
 40
0.2471216919471392
 40
0.405517206572419
 40
0.5738153969685945
 40
0.736630186806023
 40
0.8968511198393765
 40
1.0
 40
1.0
 40
1.0
 40
1.0
 10
408.3463267241586
 20
-92.267534014068
 30
0.0
 10
408.4204351778146
 20
-92.30331013513769
 30
0.0
 10
408.6961185143699
 20
-92.43639725190964
 30
0.0
 10
409.06989950269
 20
-92.79518729757378
 30
0.0
 10
409.4875983204788
 20
-93.3560018230023
 30
0.0
 10
409.811184408091
 20
-94.04311616065037
 30
0.0
 10
410.0421492728785
 20
-94.86626828466828
 30
0.0
 10
410.1576056117654
 20
-95.67759795363324
 30
0.0
 10
410.1693059137138
 20
-96.22868154695138
 30
0.0
 10
410.1738883410956
 20
-96.44451363050075
 30
0.0
  0
SPLINE
  5
FF
330
1F
100
AcDbEntity
  8
0
  6
Continuous
 62
     7
370
    25
100
AcDbSpline
210
0.0
220
0.0
230
1.0
 70
     8
 71
     3
 72
    27
 73
    23
 74
     0
 42
0.00000001
 43
0.00000001
 40
0.0
 40
0.0
 40
0.0
 40
0.0
 40
0.0274098454188815
 40
0.079981889652199
 40
0.1327092867955398
 40
0.1855881122587575
 40
0.2386042269136548
 40
0.2917231504173492
 40
0.3449021419801304
 40
0.3980953879701558
 40
0.4512443984483103
 40
0.5042976556671127
 40
0.5572086569045732
 40
0.6099355634397005
 40
0.6624503656355344
 40
0.714758525493012
 40
0.7669373783474075
 40
0.8191379740153765
 40
0.8717118519424661
 40
0.9253588086259067
 40
0.9811237917977065
 40
0.9999999999999999
 40
0.9999999999999999
 40
0.9999999999999999
 40
0.9999999999999999
 10
410.1738883410956
 20
-96.44451363050075
 30
0.0
 10
410.1708780804158
 20
-96.62319263435512
 30
0.0
 10
410.1620941440658
 20
-97.14457771154356
 30
0.0
 10
410.0628617077321
 20
-98.06464546356037
 30
0.0
 10
409.8381830542613
 20
-99.20620331387207
 30
0.0
 10
409.50165473856
 20
-100.3808318718635
 30
0.0
 10
409.0595478075605
 20
-101.5661173471632
 30
0.0
 10
408.518072995305
 20
-102.7413433440755
 30
0.0
 10
407.8863062408151
 20
-103.8854350153345
 30
0.0
 10
407.1752195291447
 20
-104.9780021929568
 30
0.0
 10
406.3976871895573
 20
-105.9996574692572
 30
0.0
 10
405.5681972318068
 20
-106.9325110176663
 30
0.0
 10
404.7025715184994
 20
-107.7606304858182
 30
0.0
 10
403.8177398531321
 20
-108.4704196956362
 30
0.0
 10
402.9314084372077
 20
-109.0511192739047
 30
0.0
 10
402.0615798567611
 20
-109.4952706913099
 30
0.0
 10
401.2258312790915
 20
-109.799446630596
 30
0.0
 10
400.4406474502169
 20
-109.9634418248384
 30
0.0
 10
399.716260765182
 20
-109.9947116277076
 30
0.0
 10
399.0632417588717
 20
-109.8872837790095
 30
0.0
 10
398.5972685518591
 20
-109.7333208834236
 30
0.0
 10
398.3704481619416
 20
-109.5664500486825
 30
0.0
 10
398.3130869539305
 20
-109.524249642158
 30
0.0
  0
SPLINE
  5
100
330
1F
100
AcDbEntity
  8
0
  6
Continuous
 62
     7
370
    25
100
AcDbSpline
210
0.0
220
0.0
230
1.0
 70
     8
 71
     3
 72
    14
 73
    10
 74
     0
 42
0.00000001
 43
0.00000001
 40
0.0
 40
0.0
 40
0.0
 40
0.0
 40
0.0664305891095715
 40
0.2471216919472194
 40
0.4055172065724993
 40
0.5738153969686647
 40
0.7366301868061019
 40
0.8968511198394532
 40
1.0
 40
1.0
 40
1.0
 40
1.0
 10
354.4647899977439
 20
-185.5930929402017
 30
0.0
 10
354.5388984513999
 20
-185.6288690612715
 30
0.0
 10
354.8145817879553
 20
-185.7619561780435
 30
0.0
 10
355.1883627762754
 20
-186.1207462237078
 30
0.0
 10
355.6060615940642
 20
-186.6815607491363
 30
0.0
 10
355.9296476816763
 20
-187.3686750867845
 30
0.0
 10
356.1606125464637
 20
-188.1918272108024
 30
0.0
 10
356.2760688853506
 20
-189.0031568797673
 30
0.0
 10
356.287769187299
 20
-189.5542404730853
 30
0.0
 10
356.2923516146808
 20
-189.7700725566344
 30
0.0
  0
SPLINE
  5
101
330
1F
100
AcDbEntity
  8
0
  6
Continuous
 62
     7
370
    25
100
AcDbSpline
210
0.0
220
0.0
230
1.0
 70
     8
 71
     3
 72
    27
 73
    23
 74
     0
 42
0.00000001
 43
0.00000001
 40
0.0
 40
0.0
 40
0.0
 40
0.0
 40
0.0274098454188817
 40
0.0799818896522022
 40
0.1327092867955443
 40
0.1855881122587604
 40
0.2386042269136576
 40
0.2917231504173545
 40
0.3449021419801372
 40
0.3980953879701617
 40
0.451244398448313
 40
0.5042976556671186
 40
0.5572086569045774
 40
0.6099355634396997
 40
0.6624503656355373
 40
0.7147585254930126
 40
0.7669373783474129
 40
0.8191379740153861
 40
0.8717118519424785
 40
0.9253588086259217
 40
0.9811237917977246
 40
1.0
 40
1.0
 40
1.0
 40
1.0
 10
356.2923516146808
 20
-189.7700725566345
 30
0.0
 10
356.289341354001
 20
-189.9487515604889
 30
0.0
 10
356.280557417651
 20
-190.4701366376773
 30
0.0
 10
356.1813249813173
 20
-191.3902043896941
 30
0.0
 10
355.9566463278465
 20
-192.5317622400058
 30
0.0
 10
355.6201180121452
 20
-193.7063907979973
 30
0.0
 10
355.1780110811456
 20
-194.891676273297
 30
0.0
 10
354.6365362688901
 20
-196.0669022702094
 30
0.0
 10
354.0047695144002
 20
-197.2109939414684
 30
0.0
 10
353.2936828027298
 20
-198.3035611190906
 30
0.0
 10
352.5161504631423
 20
-199.3252163953911
 30
0.0
 10
351.6866605053919
 20
-200.2580699438
 30
0.0
 10
350.8210347920846
 20
-201.0861894119521
 30
0.0
 10
349.9362031267172
 20
-201.79597862177
 30
0.0
 10
349.0498717107928
 20
-202.3766782000385
 30
0.0
 10
348.1800431303461
 20
-202.8208296174437
 30
0.0
 10
347.3442945526765
 20
-203.1250055567297
 30
0.0
 10
346.5591107238019
 20
-203.2890007509721
 30
0.0
 10
345.8347240387669
 20
-203.3202705538413
 30
0.0
 10
345.1817050324566
 20
-203.2128427051432
 30
0.0
 10
344.7157318254441
 20
-203.0588798095573
 30
0.0
 10
344.4889114355267
 20
-202.8920089748162
 30
0.0
 10
344.4315502275156
 20
-202.8498085682916
 30
0.0
  0
SPLINE
  5
102
330
1F
100
AcDbEntity
  8
0
  6
Continuous
 62
     7
370
    25
100
AcDbSpline
210
0.0
220
0.0
230
1.0
 70
     8
 71
     3
 72
    57
 73
    53
 74
     0
 42
0.00000001
 43
0.00000001
 40
0.0
 40
0.0
 40
0.0
 40
0.0
 40
0.0090772622220393
 40
0.029924869741278
 40
0.0507120893557911
 40
0.0714462809371624
 40
0.0921372356014803
 40
0.1127951830896971
 40
0.1334295482637551
 40
0.1540483389745466
 40
0.1746579678800974
 40
0.1952633277128704
 40
0.2158677113868314
 40
0.2364731548882766
 40
0.257081550855726
 40
0.2776940731300772
 40
0.2983113554759408
 40
0.3189336350886645
 40
0.3395608638458121
 40
0.3601927923575733
 40
0.3808290321005059
 40
0.401469100433702
 40
0.4221124525481614
 40
0.442758503622839
 40
0.4634066437628558
 40
0.4840562477163614
 40
0.5047066809122654
 40
0.5253573030222254
 40
0.5460073168500037
 40
0.5666560150144585
 40
0.5873027511478035
 40
0.6079468812878043
 40
0.6285877685271356
 40
0.6492247907415917
 40
0.6698573527609771
 40
0.6904849047660446
 40
0.711106969222252
 40
0.7317231793159175
 40
0.7523333326212265
 40
0.7729374645284212
 40
0.793535946641022
 40
0.8141296155727303
 40
0.8347199367349143
 40
0.8553090724128335
 40
0.8758992784667979
 40
0.8964947652262951
 40
0.9171012047317498
 40
0.9377258943260989
 40
0.9583777478445531
 40
0.9790669645383088
 40
0.9998041894925019
 40
1.0
 40
1.0
 40
1.0
 40
1.0
 10
328.92307935361
 20
-182.4533277056416
 30
0.0
 10
328.7598437880059
 20
-182.245400807074
 30
0.0
 10
328.2217076277453
 20
-181.5599314217966
 30
0.0
 10
327.4145363162443
 20
-180.2572454702701
 30
0.0
 10
326.503182628691
 20
-178.556772099983
 30
0.0
 10
325.7056178802947
 20
-176.730313886386
 30
0.0
 10
325.0166463181398
 20
-174.7931458175809
 30
0.0
 10
324.4400933083617
 20
-172.7481410114719
 30
0.0
 10
323.9771252023419
 20
-170.6018329185319
 30
0.0
 10
323.6293482003488
 20
-168.3601903939074
 30
0.0
 10
323.3979378794196
 20
-166.0297783562426
 30
0.0
 10
323.2838248640133
 20
-163.6174598068163
 30
0.0
 10
323.2875992171006
 20
-161.1304665898007
 30
0.0
 10
323.4094977530396
 20
-158.5763206810471
 30
0.0
 10
323.6493868055773
 20
-155.9627932470117
 30
0.0
 10
324.0067592981922
 20
-153.2978584726727
 30
0.0
 10
324.4807282833249
 20
-150.5896889559446
 30
0.0
 10
325.0700257500724
 20
-147.8466194237449
 30
0.0
 10
325.7730050271459
 20
-145.077111790693
 30
0.0
 10
326.5876459928693
 20
-142.2897216194395
 30
0.0
 10
327.5115623581829
 20
-139.4930660119425
 30
0.0
 10
328.5420105263641
 20
-136.6957927880354
 30
0.0
 10
329.6758996732357
 20
-133.9065507843408
 30
0.0
 10
330.9098028079729
 20
-131.1339611036022
 30
0.0
 10
332.2399686540336
 20
-128.3865891664693
 30
0.0
 10
333.6623342454507
 20
-125.672917444482
 30
0.0
 10
335.1725381694504
 20
-123.001318782124
 30
0.0
 10
336.7659304759162
 20
-120.3800367135436
 30
0.0
 10
338.4375885149251
 20
-117.8171551745853
 30
0.0
 10
340.1823334524711
 20
-115.3205701057519
 30
0.0
 10
341.9947508070759
 20
-112.8979585467877
 30
0.0
 10
343.8692047110043
 20
-110.5567583275045
 30
0.0
 10
345.7998530867587
 20
-108.3041464238683
 30
0.0
 10
347.7806651770761
 20
-106.1470150865615
 30
0.0
 10
349.8054398763365
 20
-104.0919482578299
 30
0.0
 10
351.8678250123614
 20
-102.1451982688393
 30
0.0
 10
353.9613377936176
 20
-100.3126628286055
 30
0.0
 10
356.0793867129022
 20
-98.59986237105713
 30
0.0
 10
358.2152953123369
 20
-97.01191786928965
 30
0.0
 10
360.3623282551439
 20
-95.55352950609728
 30
0.0
 10
362.5137204909003
 20
-94.22895626619685
 30
0.0
 10
364.6627094560585
 20
-93.0419988421513
 30
0.0
 10
366.8025689995386
 20
-91.99598344984517
 30
0.0
 10
368.9266115624906
 20
-91.09377838518431
 30
0.0
 10
371.0282814457129
 20
-90.33771868649937
 30
0.0
 10
373.1011227356875
 20
-89.72979930602457
 30
0.0
 10
375.1391829739214
 20
-89.27097662473477
 30
0.0
 10
377.13583560158
 20
-88.96387972902589
 30
0.0
 10
379.0883074603644
 20
-88.80291353044717
 30
0.0
 10
380.9808938597325
 20
-88.81156133610385
 30
0.0
 10
382.2297410638258
 20
-88.87280555682337
 30
0.0
 10
382.8270097877732
 20
-88.97256053924198
 30
0.0
 10
382.8325967219837
 20
-88.97349366113765
 30
0.0
  0
SPLINE
  5
103
330
1F
100
AcDbEntity
  8
0
  6
Continuous
 62
     7
370
    25
100
AcDbSpline
210
0.0
220
0.0
230
1.0
 70
     8
 71
     3
 72
    14
 73
    10
 74
     0
 42
0.00000001
 43
0.00000001
 40
0.0
 40
0.0
 40
0.0
 40
0.0
 40
0.0664305891095621
 40
0.247121691947209
 40
0.4055172065725013
 40
0.5738153969686621
 40
0.7366301868061025
 40
0.8968511198394551
 40
1.0
 40
1.0
 40
1.0
 40
1.0
 10
354.4647899977488
 20
-61.15227320881626
 30
0.0
 10
354.5388984514047
 20
-61.18804932988601
 30
0.0
 10
354.8145817879601
 20
-61.321136446658
 30
0.0
 10
355.1883627762803
 20
-61.67992649232225
 30
0.0
 10
355.6060615940691
 20
-62.24074101775086
 30
0.0
 10
355.9296476816812
 20
-62.92785535539899
 30
0.0
 10
356.1606125464686
 20
-63.75100747941699
 30
0.0
 10
356.2760688853555
 20
-64.56233714838183
 30
0.0
 10
356.2877691873039
 20
-65.11342074169983
 30
0.0
 10
356.2923516146857
 20
-65.32925282524901
 30
0.0
  0
SPLINE
  5
104
330
1F
100
AcDbEntity
  8
0
  6
Continuous
 62
     7
370
    25
100
AcDbSpline
210
0.0
220
0.0
230
1.0
 70
     8
 71
     3
 72
    27
 73
    23
 74
     0
 42
0.00000001
 43
0.00000001
 40
0.0
 40
0.0
 40
0.0
 40
0.0
 40
0.0274098454188817
 40
0.0799818896522021
 40
0.1327092867955443
 40
0.1855881122587604
 40
0.2386042269136576
 40
0.2917231504173545
 40
0.3449021419801371
 40
0.3980953879701616
 40
0.4512443984483129
 40
0.5042976556671185
 40
0.5572086569045773
 40
0.6099355634396996
 40
0.6624503656355372
 40
0.7147585254930124
 40
0.7669373783474128
 40
0.819137974015386
 40
0.8717118519424782
 40
0.9253588086259216
 40
0.9811237917977244
 40
1.0
 40
1.0
 40
1.0
 40
1.0
 10
356.2923516146857
 20
-65.32925282524901
 30
0.0
 10
356.2893413540058
 20
-65.50793182910338
 30
0.0
 10
356.2805574176559
 20
-66.02931690629185
 30
0.0
 10
356.1813249813222
 20
-66.94938465830867
 30
0.0
 10
355.9566463278514
 20
-68.09094250862042
 30
0.0
 10
355.62011801215
 20
-69.26557106661188
 30
0.0
 10
355.1780110811505
 20
-70.45085654191158
 30
0.0
 10
354.636536268895
 20
-71.62608253882397
 30
0.0
 10
354.0047695144051
 20
-72.77017421008294
 30
0.0
 10
353.2936828027347
 20
-73.86274138770519
 30
0.0
 10
352.5161504631473
 20
-74.8843966640056
 30
0.0
 10
351.6866605053968
 20
-75.81725021241462
 30
0.0
 10
350.8210347920894
 20
-76.6453696805666
 30
0.0
 10
349.9362031267221
 20
-77.35515889038452
 30
0.0
 10
349.0498717107977
 20
-77.93585846865305
 30
0.0
 10
348.180043130351
 20
-78.38000988605823
 30
0.0
 10
347.3442945526814
 20
-78.6841858253443
 30
0.0
 10
346.5591107238068
 20
-78.8481810195867
 30
0.0
 10
345.8347240387718
 20
-78.87945082245587
 30
0.0
 10
345.1817050324615
 20
-78.77202297375773
 30
0.0
 10
344.715731825449
 20
-78.61806007817185
 30
0.0
 10
344.4889114355316
 20
-78.45118924343072
 30
0.0
 10
344.4315502275205
 20
-78.40898883690619
 30
0.0
  0
SPLINE
  5
105
330
1F
100
AcDbEntity
  8
0
  6
Continuous
 62
     7
370
    25
100
AcDbSpline
210
0.0
220
0.0
230
1.0
 70
     8
 71
     3
 72
    14
 73
    10
 74
     0
 42
0.00000001
 43
0.00000001
 40
0.0
 40
0.0
 40
0.0
 40
0.0
 40
0.066430589109527
 40
0.247121691947155
 40
0.4055172065724419
 40
0.5738153969686085
 40
0.7366301868060439
 40
0.8968511198393906
 40
1.0
 40
1.0
 40
1.0
 40
1.0
 10
300.5832532713339
 20
-154.47783213495
 30
0.0
 10
300.6573617249899
 20
-154.5136082560197
 30
0.0
 10
300.9330450615452
 20
-154.6466953727917
 30
0.0
 10
301.3068260498654
 20
-155.0054854184559
 30
0.0
 10
301.7245248676542
 20
-155.5662999438844
 30
0.0
 10
302.0481109552663
 20
-156.2534142815325
 30
0.0
 10
302.2790758200537
 20
-157.0765664055504
 30
0.0
 10
302.3945321589406
 20
-157.8878960745153
 30
0.0
 10
302.4062324608891
 20
-158.4389796678334
 30
0.0
 10
302.4108148882709
 20
-158.6548117513827
 30
0.0
  0
SPLINE
  5
106
330
1F
100
AcDbEntity
  8
0
  6
Continuous
 62
     7
370
    25
100
AcDbSpline
210
0.0
220
0.0
230
1.0
 70
     8
 71
     3
 72
    27
 73
    23
 74
     0
 42
0.00000001
 43
0.00000001
 40
0.0
 40
0.0
 40
0.0
 40
0.0
 40
0.0274098454188815
 40
0.0799818896521989
 40
0.1327092867955399
 40
0.1855881122587575
 40
0.2386042269136548
 40
0.2917231504173493
 40
0.3449021419801304
 40
0.3980953879701558
 40
0.4512443984483104
 40
0.5042976556671128
 40
0.5572086569045732
 40
0.6099355634397016
 40
0.6624503656355352
 40
0.7147585254930128
 40
0.7669373783474076
 40
0.8191379740153766
 40
0.8717118519424664
 40
0.9253588086259068
 40
0.9811237917977066
 40
1.0
 40
1.0
 40
1.0
 40
1.0
 10
302.4108148882709
 20
-158.6548117513827
 30
0.0
 10
302.407804627591
 20
-158.8334907552371
 30
0.0
 10
302.399020691241
 20
-159.3548758324256
 30
0.0
 10
302.2997882549074
 20
-160.2749435844423
 30
0.0
 10
302.0751096014366
 20
-161.4165014347541
 30
0.0
 10
301.7385812857353
 20
-162.5911299927455
 30
0.0
 10
301.2964743547357
 20
-163.7764154680452
 30
0.0
 10
300.7549995424802
 20
-164.9516414649576
 30
0.0
 10
300.1232327879903
 20
-166.0957331362165
 30
0.0
 10
299.4121460763199
 20
-167.1883003138387
 30
0.0
 10
298.6346137367325
 20
-168.2099555901392
 30
0.0
 10
297.8051237789821
 20
-169.1428091385482
 30
0.0
 10
296.9394980656747
 20
-169.9709286067002
 30
0.0
 10
296.0546664003073
 20
-170.6807178165182
 30
0.0
 10
295.168334984383
 20
-171.2614173947867
 30
0.0
 10
294.2985064039363
 20
-171.7055688121919
 30
0.0
 10
293.4627578262667
 20
-172.009744751478
 30
0.0
 10
292.6775739973921
 20
-172.1737399457204
 30
0.0
 10
291.9531873123572
 20
-172.2050097485896
 30
0.0
 10
291.3001683060469
 20
-172.0975818998915
 30
0.0
 10
290.8341950990343
 20
-171.9436190043056
 30
0.0
 10
290.6073747091169
 20
-171.7767481695645
 30
0.0
 10
290.5500135011057
 20
-171.73454776304
 30
0.0
  0
LWPOLYLINE
  5
107
330
1F
100
AcDbEntity
  8
0
  6
Continuous
 62
     7
370
    25
100
AcDbPolyline
 90
      143
 70
   128
 43
0.0
 10
416.6893212344
 20
-92.4441138826
 10
416.6228798873
 20
-89.0151097024
 10
416.4236859083
 20
-85.6695295054
 10
416.0921292288
 20
-82.4139224219
 10
415.6288588866
 20
-79.2546614556
 10
415.0347817552
 20
-76.1979310083
 10
414.3110607684
 20
-73.2497147733
 10
413.4591126441
 20
-70.4157840224
 10
412.4806051108
 20
-67.7016863081
 10
411.3774536428
 20
-65.112734604
 10
410.151817711
 20
-62.6539969049
 10
408.8060965552
 20
-60.3302863051
 10
407.342924488
 20
-58.1461515773
 10
405.7651657371
 20
-56.1058682678
 10
404.0759088396
 20
-54.2134303269
 10
402.2784605951
 20
-52.4725422909
 10
400.376339593
 20
-50.8866120298
 10
398.3732693244
 20
-49.4587440765
 10
396.2731708934
 20
-48.1917335497
 10
394.0801553415
 20
-47.0880606819
 10
391.7985155994
 20
-46.1498859645
 10
389.4327180841
 20
-45.3790459188
 10
386.9873939554
 20
-44.7770495002
 10
384.4673300501
 20
-44.345075145
 10
381.8774595116
 20
-44.0839684634
 10
379.2228521331
 20
-43.9942405838
 10
376.5087044333
 20
-44.0760671528
 10
373.7403294836
 20
-44.3292879912
 10
370.9231465081
 20
-44.7534074071
 10
368.0626702747
 20
-45.3475951669
 10
365.1645003
 20
-46.1106881202
 10
362.2343098879
 20
-47.0411924767
 10
359.2778350235
 20
-48.1372867305
 10
356.3008631454
 20
-49.3968252254
 10
353.3092218158
 20
-50.8173423559
 10
350.3087673131
 20
-52.3960573928
 10
347.3053731678
 20
-54.1298799275
 10
344.3049186651
 20
-56.0154159207
 10
341.3132773354
 20
-58.0489743474
 10
338.3363054574
 20
-60.2265744213
 10
335.379830593
 20
-62.5439533881
 10
332.4496401809
 20
-64.9965748696
 10
329.5514702062
 20
-67.5796377442
 10
326.6909939728
 20
-70.2880855448
 10
323.8738109973
 20
-73.1166163578
 10
321.1054360476
 20
-76.0596932012
 10
318.3912883478
 20
-79.111554864
 10
315.7366809693
 20
-82.2662271836
 10
313.1468104308
 20
-85.5175347408
 10
310.6267465255
 20
-88.8591129484
 10
308.1814223968
 20
-92.2844205101
 10
305.8156248815
 20
-95.7867522256
 10
303.5339851394
 20
-99.3592521159
 10
301.3409695875
 20
-102.9949268448
 10
299.2408711565
 20
-106.6866594084
 10
297.2378008879
 20
-110.4272230667
 10
295.3356798858
 20
-114.2092954907
 10
293.5382316413
 20
-118.025473096
 10
291.8489747438
 20
-121.8682855358
 10
290.2712159929
 20
-125.7302103243
 10
288.8080439256
 20
-129.6036875624
 10
287.4623227699
 20
-133.4811347363
 10
286.2366868381
 20
-137.3549615613
 10
285.1335353701
 20
-141.2175848394
 10
284.1550278368
 20
-145.0614433041
 10
283.3030797125
 20
-148.879012422
 10
282.5793587257
 20
-152.6628191223
 10
281.9852815943
 20
-156.4054564256
 10
281.5220112521
 20
-160.0995979437
 10
281.1904545726
 20
-163.7380122211
 10
280.9912605936
 20
-167.313576891
 10
280.9248192465
 20
-170.8192926175
 10
280.9912605936
 20
-174.2482967977
 10
281.1904545726
 20
-177.5938769947
 10
281.5220112521
 20
-180.8494840782
 10
281.9852815943
 20
-184.0087450445
 10
282.5793587257
 20
-187.0654754918
 10
283.3030797125
 20
-190.0136917268
 10
284.1550278368
 20
-192.8476224777
 10
285.1335353701
 20
-195.5617201921
 10
286.2366868381
 20
-198.1506718961
 10
287.4623227699
 20
-200.6094095952
 10
288.8080439256
 20
-202.933120195
 10
290.2712159929
 20
-205.1172549228
 10
291.8489747438
 20
-207.1575382323
 10
293.5382316413
 20
-209.0499761732
 10
295.3356798858
 20
-210.7908642092
 10
297.2378008879
 20
-212.3767944703
 10
299.2408711565
 20
-213.8046624236
 10
301.3409695875
 20
-215.0716729504
 10
303.5339851394
 20
-216.1753458183
 10
305.8156248815
 20
-217.1135205356
 10
308.1814223968
 20
-217.8843605813
 10
310.6267465255
 20
-218.4863569999
 10
313.1468104308
 20
-218.9183313551
 10
315.7366809693
 20
-219.1794380367
 10
318.3912883478
 20
-219.2691659163
 10
321.1054360476
 20
-219.1873393473
 10
323.8738109973
 20
-218.934118509
 10
326.6909939728
 20
-218.509999093
 10
329.5514702062
 20
-217.9158113332
 10
332.4496401809
 20
-217.1527183799
 10
335.379830593
 20
-216.2222140234
 10
338.3363054574
 20
-215.1261197696
 10
341.3132773354
 20
-213.8665812747
 10
344.3049186651
 20
-212.4460641442
 10
347.3053731678
 20
-210.8673491073
 10
350.3087673131
 20
-209.1335265727
 10
353.3092218158
 20
-207.2479905794
 10
356.3008631454
 20
-205.2144321527
 10
359.2778350235
 20
-203.0368320788
 10
362.2343098879
 20
-200.719453112
 10
365.1645003
 20
-198.2668316305
 10
368.0626702747
 20
-195.683768756
 10
370.9231465081
 20
-192.9753209553
 10
373.7403294836
 20
-190.1467901423
 10
376.5087044333
 20
-187.2037132989
 10
379.2228521331
 20
-184.1518516361
 10
381.8774595116
 20
-180.9971793165
 10
384.4673300501
 20
-177.7458717593
 10
386.9873939554
 20
-174.4042935517
 10
389.4327180841
 20
-170.97898599
 10
391.7985155994
 20
-167.4766542746
 10
394.0801553415
 20
-163.9041543842
 10
396.2731708934
 20
-160.2684796553
 10
398.3732693244
 20
-156.5767470917
 10
400.376339593
 20
-152.8361834335
 10
402.2784605951
 20
-149.0541110094
 10
404.0759088396
 20
-145.2379334041
 10
405.7651657371
 20
-141.3951209643
 10
407.342924488
 20
-137.5331961758
 10
408.8060965552
 20
-133.6597189377
 10
410.151817711
 20
-129.7822717638
 10
411.3774536428
 20
-125.9084449388
 10
412.4806051108
 20
-122.0458216607
 10
413.4591126441
 20
-118.201963196
 10
414.3110607684
 20
-114.3843940781
 10
415.0347817552
 20
-110.6005873778
 10
415.6288588866
 20
-106.8579500745
 10
416.0921292288
 20
-103.1638085564
 10
416.4236859083
 20
-99.525394279
 10
416.6228798873
 20
-95.9498296092
 10
416.6893212344
 20
-92.4441138826
  0
ARC
  5
108
330
1F
100
AcDbEntity
  8
0
  6
Continuous
 62
     7
370
    25
100
AcDbCircle
 10
317.3777876379
 20
-187.7083689255
 30
0.0
 40
32.71887311420404
100
AcDbArc
 50
227.022087218
 51
253.1627643608
  0
ARC
  5
109
330
1F
100
AcDbEntity
  8
0
  6
Continuous
 62
     7
370
    25
100
AcDbCircle
 10
381.644585292
 20
-76.3823765292
 30
0.0
 40
32.7311978033315
100
AcDbArc
 50
46.6708055815
 51
73.3347419634
  0
ARC
  5
10A
330
1F
100
AcDbEntity
  8
0
  6
Continuous
 62
     7
370
    25
100
AcDbCircle
 10
394.2755283803
 20
-83.8369800872
 30
0.0
 40
32.87506703213042
100
AcDbArc
 50
47.4548834625
 51
59.9494832257
  0
ARC
  5
10B
330
1F
100
AcDbEntity
  8
0
  6
Continuous
 62
     7
370
    25
100
AcDbCircle
 10
330.136829365
 20
-194.9568603578
 30
0.0
 40
32.82296553919733
100
AcDbArc
 50
240.0417029211
 51
253.3551562067
  0
LWPOLYLINE
  5
10C
330
1F
100
AcDbEntity
  8
0
  6
Continuous
 62
     7
370
    25
100
AcDbPolyline
 90
       49
 70
   128
 43
0.0
 10
356.5852448335
 20
-189.3618685007
 10
356.5187014716
 20
-190.5726627585
 10
356.3202099613
 20
-191.8395693212
 10
355.9931665473
 20
-193.1409110661
 10
355.5431670331
 20
-194.4544216753
 10
354.9779110352
 20
-195.7576266181
 10
354.3070702404
 20
-197.0282276965
 10
353.5421229208
 20
-198.2444845738
 10
352.696157537
 20
-199.3855867578
 10
351.7836487912
 20
-200.4320096735
 10
350.8202099613
 20
-201.3658487348
 10
349.8223257525
 20
-202.1711256965
 10
348.8070702404
 20
-202.8340620465
 10
347.7918147284
 20
-203.34331476
 10
346.7939305196
 20
-203.6901703819
 10
345.8304916896
 20
-203.8686941164
 10
344.9179829439
 20
-203.8758313728
 10
344.0720175601
 20
-203.7114600307
 10
343.3070702404
 20
-203.3783925294
 10
342.6362294457
 20
-202.8823277462
 10
342.0709734478
 20
-202.2317534869
 10
341.6209739336
 20
-201.4378012577
 10
341.2939305196
 20
-200.5140558012
 10
341.0954390093
 20
-199.4763226583
 10
341.0288956474
 20
-198.3423577308
 10
341.0954390093
 20
-197.131563473
 10
341.2939305196
 20
-195.8646569103
 10
341.6209739336
 20
-194.5633151654
 10
342.0709734478
 20
-193.2498045562
 10
342.6362294457
 20
-191.9465996134
 10
343.3070702404
 20
-190.675998535
 10
344.0720175601
 20
-189.4597416577
 10
344.9179829439
 20
-188.3186394737
 10
345.8304916896
 20
-187.272216558
 10
346.7939305196
 20
-186.3383774967
 10
347.7918147284
 20
-185.533100535
 10
348.8070702404
 20
-184.870164185
 10
349.8223257525
 20
-184.3609114715
 10
350.8202099613
 20
-184.0140558496
 10
351.7836487912
 20
-183.8355321151
 10
352.696157537
 20
-183.8283948587
 10
353.5421229208
 20
-183.9927662008
 10
354.3070702404
 20
-184.3258337021
 10
354.9779110352
 20
-184.8218984853
 10
355.5431670331
 20
-185.4724727446
 10
355.9931665473
 20
-186.2664249738
 10
356.3202099613
 20
-187.1901704303
 10
356.5187014716
 20
-188.2279035732
 10
356.5852448335
 20
-189.3618685007
  0
LWPOLYLINE
  5
10D
330
1F
100
AcDbEntity
  8
0
  6
Continuous
 62
     7
370
    25
100
AcDbPolyline
 90
       49
 70
   128
 43
0.0
 10
356.5852448335
 20
-64.9210487693
 10
356.5187014716
 20
-66.1318430271
 10
356.3202099613
 20
-67.3987495898
 10
355.9931665473
 20
-68.7000913347
 10
355.5431670331
 20
-70.0136019439
 10
354.9779110352
 20
-71.3168068867
 10
354.3070702404
 20
-72.5874079651
 10
353.5421229208
 20
-73.8036648425
 10
352.696157537
 20
-74.9447670264
 10
351.7836487913
 20
-75.9911899421
 10
350.8202099613
 20
-76.9250290034
 10
349.8223257525
 20
-77.7303059651
 10
348.8070702404
 20
-78.3932423151
 10
347.7918147284
 20
-78.9024950286
 10
346.7939305196
 20
-79.2493506505
 10
345.8304916896
 20
-79.427874385
 10
344.9179829439
 20
-79.4350116414
 10
344.0720175601
 20
-79.2706402993
 10
343.3070702404
 20
-78.937572798
 10
342.6362294457
 20
-78.4415080148
 10
342.0709734478
 20
-77.7909337556
 10
341.6209739336
 20
-76.9969815263
 10
341.2939305196
 20
-76.0732360698
 10
341.0954390093
 20
-75.0355029269
 10
341.0288956474
 20
-73.9015379994
 10
341.0954390093
 20
-72.6907437416
 10
341.2939305196
 20
-71.423837179
 10
341.6209739336
 20
-70.122495434
 10
342.0709734478
 20
-68.8089848248
 10
342.6362294457
 20
-67.5057798821
 10
343.3070702404
 20
-66.2351788036
 10
344.0720175601
 20
-65.0189219263
 10
344.9179829439
 20
-63.8778197424
 10
345.8304916896
 20
-62.8313968266
 10
346.7939305196
 20
-61.8975577653
 10
347.7918147284
 20
-61.0922808036
 10
348.8070702404
 20
-60.4293444536
 10
349.8223257525
 20
-59.9200917401
 10
350.8202099613
 20
-59.5732361182
 10
351.7836487913
 20
-59.3947123838
 10
352.696157537
 20
-59.3875751273
 10
353.5421229208
 20
-59.5519464694
 10
354.3070702404
 20
-59.8850139707
 10
354.9779110352
 20
-60.3810787539
 10
355.5431670331
 20
-61.0316530132
 10
355.9931665473
 20
-61.8256052424
 10
356.3202099613
 20
-62.7493506989
 10
356.5187014716
 20
-63.7870838418
 10
356.5852448335
 20
-64.9210487693
  0
LWPOLYLINE
  5
10E
330
1F
100
AcDbEntity
  8
0
  6
Continuous
 62
     7
370
    25
100
AcDbPolyline
 90
      109
 70
   128
 43
0.0
 10
388.7586033775
 20
-108.5681740911
 10
388.6910117066
 20
-111.2896797901
 10
388.4884654028
 20
-114.0800164574
 10
388.1516498185
 20
-116.929742477
 10
387.6817046312
 20
-119.8292152781
 10
387.0802199867
 20
-122.7686239624
 10
386.3492311184
 20
-125.7380225015
 10
385.4912114614
 20
-128.7273633907
 10
384.5090642827
 20
-131.7265316466
 10
383.4061128573
 20
-134.7253790332
 10
382.1860892237
 20
-137.7137584003
 10
380.8531215558
 20
-140.6815580179
 10
379.4117201942
 20
-143.6187357917
 10
377.8667623848
 20
-146.5153532418
 10
376.2234757758
 20
-149.3616091316
 10
374.4874207289
 20
-152.1478726322
 10
372.6644715049
 20
-154.8647159098
 10
370.7607963869
 20
-157.5029460268
 10
368.782836809
 20
-160.0536360476
 10
366.7372855601
 20
-162.5081552446
 10
364.6310641383
 20
-164.8581983017
 10
362.4712993301
 20
-167.0958134172
 10
360.2652990959
 20
-169.2134292098
 10
358.0205278423
 20
-171.2038803379
 10
355.7445811647
 20
-173.0604317451
 10
353.4451601461
 20
-174.776801449
 10
351.1300452994
 20
-176.3471817978
 10
348.8070702404
 20
-177.7662591216
 10
346.4840951815
 20
-179.0292317119
 10
344.1689803348
 20
-180.1318260691
 10
341.8695593162
 20
-181.0703113632
 10
339.5936126386
 20
-181.8415120567
 10
337.348841385
 20
-182.4428186509
 10
335.1428411508
 20
-182.8721965143
 10
332.9830763426
 20
-183.1281927684
 10
330.8768549208
 20
-183.2099412028
 10
328.8313036719
 20
-183.1171652066
 10
326.853344094
 20
-182.8501787045
 10
324.949668976
 20
-182.4098850944
 10
323.126719752
 20
-181.7977741903
 10
321.3906647051
 20
-181.0159171818
 10
319.7473780961
 20
-180.0669596256
 10
318.2024202867
 20
-178.9541124936
 10
316.7610189251
 20
-177.6811413084
 10
315.4280512572
 20
-176.2523534013
 10
314.2080276236
 20
-174.6725833384
 10
313.1050761982
 20
-172.9471765616
 10
312.1229290195
 20
-171.0819713013
 10
311.2649093625
 20
-169.0832788215
 10
310.5339204942
 20
-166.957862065
 10
309.9324358497
 20
-164.7129127693
 10
309.4624906624
 20
-162.3560271322
 10
309.1256750781
 20
-159.8951801087
 10
308.9231287743
 20
-157.338698426
 10
308.8555371034
 20
-154.695232409
 10
308.9231287743
 20
-151.97372671
 10
309.1256750781
 20
-149.1833900427
 10
309.4624906624
 20
-146.3336640231
 10
309.9324358497
 20
-143.434191222
 10
310.5339204942
 20
-140.4947825377
 10
311.2649093625
 20
-137.5253839986
 10
312.1229290195
 20
-134.5360431094
 10
313.1050761982
 20
-131.5368748535
 10
314.2080276236
 20
-128.5380274669
 10
315.4280512572
 20
-125.5496480998
 10
316.7610189251
 20
-122.5818484822
 10
318.2024202867
 20
-119.6446707084
 10
319.7473780961
 20
-116.7480532583
 10
321.3906647051
 20
-113.9017973685
 10
323.126719752
 20
-111.1155338679
 10
324.949668976
 20
-108.3986905903
 10
326.853344094
 20
-105.7604604733
 10
328.8313036719
 20
-103.2097704525
 10
330.8768549208
 20
-100.7552512555
 10
332.9830763426
 20
-98.4052081984
 10
335.1428411508
 20
-96.1675930829
 10
337.348841385
 20
-94.0499772903
 10
339.5936126386
 20
-92.0595261622
 10
341.8695593162
 20
-90.202974755
 10
344.1689803348
 20
-88.4866050511
 10
346.4840951815
 20
-86.9162247023
 10
348.8070702404
 20
-85.4971473785
 10
351.1300452994
 20
-84.2341747883
 10
353.4451601461
 20
-83.131580431
 10
355.7445811647
 20
-82.193095137
 10
358.0205278423
 20
-81.4218944434
 10
360.2652990959
 20
-80.8205878493
 10
362.4712993301
 20
-80.3912099858
 10
364.6310641383
 20
-80.1352137317
 10
366.7372855601
 20
-80.0534652973
 10
368.782836809
 20
-80.1462412935
 10
370.7607963869
 20
-80.4132277956
 10
372.6644715049
 20
-80.8535214058
 10
374.4874207289
 20
-81.4656323099
 10
376.2234757758
 20
-82.2474893183
 10
377.8667623848
 20
-83.1964468745
 10
379.4117201942
 20
-84.3092940065
 10
380.8531215558
 20
-85.5822651918
 10
382.1860892237
 20
-87.0110530988
 10
383.4061128573
 20
-88.5908231617
 10
384.5090642827
 20
-90.3162299385
 10
385.4912114614
 20
-92.1814351988
 10
386.3492311184
 20
-94.1801276786
 10
387.0802199867
 20
-96.3055444351
 10
387.6817046312
 20
-98.5504937308
 10
388.1516498185
 20
-100.9073793679
 10
388.4884654028
 20
-103.3682263914
 10
388.6910117066
 20
-105.9247080741
 10
388.7586033775
 20
-108.5681740911
  0
LWPOLYLINE
  5
10F
330
1F
100
AcDbEntity
  8
0
  6
Continuous
 62
     7
370
    25
100
AcDbPolyline
 90
       49
 70
   128
 43
0.0
 10
410.4667815599
 20
-96.0363095746
 10
410.400238198
 20
-97.2471038324
 10
410.2017466877
 20
-98.514010395
 10
409.8747032737
 20
-99.81535214
 10
409.4247037595
 20
-101.1288627492
 10
408.8594477616
 20
-102.4320676919
 10
408.1886069669
 20
-103.7026687703
 10
407.4236596472
 20
-104.9189256477
 10
406.5776942634
 20
-106.0600278316
 10
405.6651855177
 20
-107.1064507474
 10
404.7017466877
 20
-108.0402898087
 10
403.7038624789
 20
-108.8455667704
 10
402.6886069669
 20
-109.5085031204
 10
401.6733514548
 20
-110.0177558339
 10
400.675467246
 20
-110.3646114558
 10
399.7120284161
 20
-110.5431351902
 10
398.7995196703
 20
-110.5502724466
 10
397.9535542865
 20
-110.3859011046
 10
397.1886069669
 20
-110.0528336033
 10
396.5177661721
 20
-109.55676882
 10
395.9525101742
 20
-108.9061945608
 10
395.50251066
 20
-108.1122423315
 10
395.175467246
 20
-107.188496875
 10
394.9769757357
 20
-106.1507637321
 10
394.9104323738
 20
-105.0167988046
 10
394.9769757357
 20
-103.8060045468
 10
395.175467246
 20
-102.5390979842
 10
395.50251066
 20
-101.2377562393
 10
395.9525101742
 20
-99.9242456301
 10
396.5177661721
 20
-98.6210406873
 10
397.1886069669
 20
-97.3504396089
 10
397.9535542865
 20
-96.1341827315
 10
398.7995196703
 20
-94.9930805476
 10
399.7120284161
 20
-93.9466576319
 10
400.675467246
 20
-93.0128185705
 10
401.6733514548
 20
-92.2075416088
 10
402.6886069669
 20
-91.5446052589
 10
403.7038624789
 20
-91.0353525454
 10
404.7017466877
 20
-90.6884969235
 10
405.6651855177
 20
-90.509973189
 10
406.5776942634
 20
-90.5028359326
 10
407.4236596472
 20
-90.6672072746
 10
408.1886069669
 20
-91.0002747759
 10
408.8594477616
 20
-91.4963395592
 10
409.4247037595
 20
-92.1469138184
 10
409.8747032737
 20
-92.9408660477
 10
410.2017466877
 20
-93.8646115042
 10
410.400238198
 20
-94.9023446471
 10
410.4667815599
 20
-96.0363095746
  0
LWPOLYLINE
  5
110
330
1F
100
AcDbEntity
  8
0
  6
Continuous
 62
     7
370
    25
100
AcDbPolyline
 90
       49
 70
   128
 43
0.0
 10
302.7037081071
 20
-158.2466076955
 10
302.6371647452
 20
-159.4574019533
 10
302.4386732348
 20
-160.7243085159
 10
302.1116298209
 20
-162.0256502609
 10
301.6616303067
 20
-163.3391608701
 10
301.0963743088
 20
-164.6423658128
 10
300.425533514
 20
-165.9129668912
 10
299.6605861944
 20
-167.1292237686
 10
298.8146208106
 20
-168.2703259525
 10
297.9021120648
 20
-169.3167488682
 10
296.9386732348
 20
-170.2505879296
 10
295.9407890261
 20
-171.0558648913
 10
294.925533514
 20
-171.7188012412
 10
293.910278002
 20
-172.2280539547
 10
292.9123937932
 20
-172.5749095766
 10
291.9489549632
 20
-172.7534333111
 10
291.0364462175
 20
-172.7605705675
 10
290.1904808337
 20
-172.5961992255
 10
289.425533514
 20
-172.2631317242
 10
288.7546927193
 20
-171.7670669409
 10
288.1894367214
 20
-171.1164926817
 10
287.7394372072
 20
-170.3225404524
 10
287.4123937932
 20
-169.3987949959
 10
287.2139022829
 20
-168.361061853
 10
287.147358921
 20
-167.2270969255
 10
287.2139022829
 20
-166.0163026677
 10
287.4123937932
 20
-164.7493961051
 10
287.7394372072
 20
-163.4480543601
 10
288.1894367214
 20
-162.1345437509
 10
288.7546927193
 20
-160.8313388082
 10
289.425533514
 20
-159.5607377298
 10
290.1904808337
 20
-158.3444808524
 10
291.0364462175
 20
-157.2033786685
 10
291.9489549632
 20
-156.1569557528
 10
292.9123937932
 20
-155.2231166914
 10
293.910278002
 20
-154.4178397297
 10
294.925533514
 20
-153.7549033798
 10
295.9407890261
 20
-153.2456506663
 10
296.9386732348
 20
-152.8987950443
 10
297.9021120648
 20
-152.7202713099
 10
298.8146208106
 20
-152.7131340535
 10
299.6605861944
 20
-152.8775053955
 10
300.425533514
 20
-153.2105728968
 10
301.0963743088
 20
-153.7066376801
 10
301.6616303067
 20
-154.3572119393
 10
302.1116298209
 20
-155.1511641686
 10
302.4386732348
 20
-156.0749096251
 10
302.6371647452
 20
-157.112642768
 10
302.7037081071
 20
-158.2466076955
  0
ARC
  5
111
330
1F
100
AcDbEntity
  8
0
  6
Continuous
 62
     7
370
    25
100
AcDbCircle
 10
367.913024266
 20
-100.1680934091
 30
0.0
 40
18.69760163412941
100
AcDbArc
 50
47.7417605419
 51
72.6314331667
  0
ARC
  5
112
330
1F
100
AcDbEntity
  8
0
  6
Continuous
 62
     7
370
    25
100
AcDbCircle
 10
331.1157048388
 20
-163.9111351228
 30
0.0
 40
18.69829091851244
100
AcDbArc
 50
227.732135624
 51
252.6761328658
  0
LINE
  5
113
330
1F
100
AcDbEntity
  8
0
  6
Continuous
 62
     7
370
    25
100
AcDbLine
 10
408.3953074112
 20
-92.2742696217
 30
0.0
 11
408.3461710726
 21
-92.246455891
 31
0.0
  0
LWPOLYLINE
  5
114
330
1F
100
AcDbEntity
  8
0
  6
Continuous
 62
     7
370
    25
100
AcDbPolyline
 90
        3
 70
   128
 43
0.0
 10
398.2815315036
 20
-109.5259925479
 10
398.3092132401
 20
-109.5433015843
 10
398.3961200849
 20
-109.5952468693
  0
LINE
  5
115
330
1F
100
AcDbEntity
  8
0
  6
Continuous
 62
     7
370
    25
100
AcDbLine
 10
354.5137706848
 20
-185.5998285479
 30
0.0
 11
354.4646343462
 21
-185.5720148171
 31
0.0
  0
LWPOLYLINE
  5
116
330
1F
100
AcDbEntity
  8
0
  6
Continuous
 62
     7
370
    25
100
AcDbPolyline
 90
        3
 70
   128
 43
0.0
 10
344.3999947772
 20
-202.851551474
 10
344.4276765137
 20
-202.8688605104
 10
344.5145833584
 20
-202.9208057955
  0
LINE
  5
117
330
1F
100
AcDbEntity
  8
0
  6
Continuous
 62
     7
370
    25
100
AcDbLine
 10
354.5137706848
 20
-61.1590088165
 30
0.0
 11
354.4646343462
 21
-61.1311950857
 31
0.0
  0
LWPOLYLINE
  5
118
330
1F
100
AcDbEntity
  8
0
  6
Continuous
 62
     7
370
    25
100
AcDbPolyline
 90
        3
 70
   128
 43
0.0
 10
344.3999947772
 20
-78.4107317426
 10
344.4276765137
 20
-78.428040779
 10
344.5145833585
 20
-78.4799860641
  0
LINE
  5
119
330
1F
100
AcDbEntity
  8
0
  6
Continuous
 62
     7
370
    25
100
AcDbLine
 10
300.6322339584
 20
-154.4845677426
 30
0.0
 11
300.5830976198
 21
-154.4567540119
 31
0.0
  0
LWPOLYLINE
  5
11A
330
1F
100
AcDbEntity
  8
0
  6
Continuous
 62
     7
370
    25
100
AcDbPolyline
 90
        3
 70
   128
 43
0.0
 10
290.5184580508
 20
-171.7362906687
 10
290.5461397873
 20
-171.7535997052
 10
290.633046632
 20
-171.8055449902
  0
LWPOLYLINE
  5
11B
330
1F
100
AcDbEntity
  8
0
  6
Continuous
 62
     1
370
    25
100
AcDbPolyline
 90
       52
 70
   128
 43
0.0
 10
418.1035347967
 20
-92.4441138826
 10
418.0364013523
 20
-95.9863474813
 10
417.835132436
 20
-99.5991576165
 10
417.5001220411
 20
-103.2754720426
 10
417.0320259662
 20
-107.0080942015
 10
416.4317605313
 20
-110.7897173101
 10
415.7005007843
 20
-114.6129386634
 10
414.8396782003
 20
-118.4702741263
 10
413.8509778802
 20
-122.3541727834
 10
412.7363352511
 20
-126.2570317206
 10
411.4979322783
 20
-130.1712109084
 10
410.1381931939
 20
-134.0890481571
 10
408.6597797509
 20
-138.0028741163
 10
407.0655860131
 20
-141.905027288
 10
405.3587326895
 20
-145.7878690241
 10
403.5425610258
 20
-149.6437984795
 10
401.6206262632
 20
-153.4652674913
 10
399.5966906793
 20
-157.2447953543
 10
397.4747162231
 20
-160.9749834654
 10
395.2588567591
 20
-164.6485298061
 10
392.9534499364
 20
-168.258243237
 10
390.563008697
 20
-171.7970575744
 10
388.092212442
 20
-175.2580454232
 10
385.545897871
 20
-178.6344317372
 10
382.9290495144
 20
-181.9196070814
 10
380.2467899757
 20
-185.107140571
 10
377.504369904
 20
-188.1907924595
 10
374.7071577152
 20
-191.1645263534
 10
371.8606290837
 20
-194.022521029
 10
368.9703562229
 20
-196.7591818276
 10
366.0419969777
 20
-199.369151607
 10
363.0812837487
 20
-201.847321229
 10
360.0940122712
 20
-204.18883956
 10
357.0860302694
 20
-206.3891229681
 10
354.0632260093
 20
-208.443864295
 10
351.0315167721
 20
-210.3490412882
 10
347.9968372712
 20
-212.1009244742
 10
344.965128034
 20
-213.6960844595
 10
341.9423237739
 20
-215.1313986433
 10
338.934341772
 20
-216.404057331
 10
335.9470702946
 20
-217.5115692332
 10
332.9863570656
 20
-218.4517663434
 10
330.0579978203
 20
-219.2228081816
 10
327.1677249595
 20
-219.8231853973
 10
324.321196328
 20
-220.2517227238
 10
321.5239841393
 20
-220.5075812792
 10
318.7815640676
 20
-220.5902602083
 10
316.0993045289
 20
-220.4995976634
 10
313.4824561723
 20
-220.2357711204
 10
310.9361416013
 20
-219.7992970324
 10
308.4653453463
 20
-219.1910298178
 10
307.900638994
 20
-219.0246316566
  0
LWPOLYLINE
  5
11C
330
1F
100
AcDbEntity
  8
0
  6
Continuous
 62
     1
370
    25
100
AcDbPolyline
 90
       16
 70
   128
 43
0.0
 10
404.1043762021
 20
-52.5729434844
 10
405.3587326895
 20
-53.8151940399
 10
407.0655860131
 20
-55.727344876
 10
408.6597797509
 20
-57.7888811366
 10
410.1381931939
 20
-59.9957672678
 10
411.4979322783
 20
-62.3436831864
 10
412.7363352511
 20
-64.8280327366
 10
413.8509778802
 20
-67.4439526875
 10
414.8396782003
 20
-70.186322253
 10
415.7005007843
 20
-73.0497731159
 10
416.4317605313
 20
-76.0286999367
 10
417.0320259662
 20
-79.1172713262
 10
417.5001220411
 20
-82.3094412609
 10
417.835132436
 20
-85.5989609182
 10
418.0364013523
 20
-88.9793909089
 10
418.1035347967
 20
-92.4441138826
  0
LWPOLYLINE
  5
11D
330
1F
100
AcDbEntity
  8
0
  6
Continuous
 62
     1
370
    25
100
AcDbPolyline
 90
       16
 70
   128
 43
0.0
 10
430.8314568581
 20
-99.791786889
 10
430.7643234137
 20
-96.3270639153
 10
430.5630544973
 20
-92.9466339246
 10
430.2280441024
 20
-89.6571142673
 10
429.7599480275
 20
-86.4649443326
 10
429.1596825926
 20
-83.3763729431
 10
428.4284228456
 20
-80.3974461223
 10
427.5676002617
 20
-77.5339952594
 10
426.5788999415
 20
-74.7916256939
 10
425.4642573124
 20
-72.175705743
 10
424.2258543397
 20
-69.6913561928
 10
422.8661152552
 20
-67.3434402742
 10
421.3877018122
 20
-65.136554143
 10
419.7935080744
 20
-63.0750178824
 10
418.0866547509
 20
-61.1628670463
 10
416.5046806671
 20
-59.6164346562
  0
LWPOLYLINE
  5
11E
330
1F
100
AcDbEntity
  8
0
  6
Continuous
 62
     1
370
    25
100
AcDbPolyline
 90
       52
 70
   128
 43
0.0
 10
320.7350738673
 20
-226.4045003384
 10
321.1932674076
 20
-226.5387028242
 10
323.6640636627
 20
-227.1469700388
 10
326.2103782336
 20
-227.5834441268
 10
328.8272265903
 20
-227.8472706698
 10
331.5094861289
 20
-227.9379332147
 10
334.2519062007
 20
-227.8552542856
 10
337.0491183894
 20
-227.5993957302
 10
339.8956470209
 20
-227.1708584037
 10
342.7859198817
 20
-226.570481188
 10
345.714279127
 20
-225.7994393498
 10
348.6749923559
 20
-224.8592422396
 10
351.6622638334
 20
-223.7517303374
 10
354.6702458352
 20
-222.4790716498
 10
357.6930500954
 20
-221.0437574659
 10
360.7247593325
 20
-219.4485974806
 10
363.7594388335
 20
-217.6967142946
 10
366.7911480706
 20
-215.7915373014
 10
369.8139523308
 20
-213.7367959745
 10
372.8219343326
 20
-211.5365125664
 10
375.8092058101
 20
-209.1949942354
 10
378.769919039
 20
-206.7168246134
 10
381.6982782843
 20
-204.106854834
 10
384.5885511451
 20
-201.3701940354
 10
387.4350797766
 20
-198.5121993598
 10
390.2322919653
 20
-195.5384654659
 10
392.9747120371
 20
-192.4548135774
 10
395.6569715757
 20
-189.2672800878
 10
398.2738199323
 20
-185.9821047436
 10
400.8201345033
 20
-182.6057184296
 10
403.2909307584
 20
-179.1447305808
 10
405.6813719977
 20
-175.6059162434
 10
407.9867788205
 20
-171.9962028125
 10
410.2026382844
 20
-168.3226564718
 10
412.3246127407
 20
-164.5924683607
 10
414.3485483246
 20
-160.8129404977
 10
416.2704830872
 20
-156.9914714859
 10
418.0866547509
 20
-153.1355420305
 10
419.7935080744
 20
-149.2527002944
 10
421.3877018122
 20
-145.3505471227
 10
422.8661152552
 20
-141.4367211635
 10
424.2258543397
 20
-137.5188839148
 10
425.4642573124
 20
-133.604704727
 10
426.5788999415
 20
-129.7018457898
 10
427.5676002617
 20
-125.8179471327
 10
428.4284228456
 20
-121.9606116699
 10
429.1596825927
 20
-118.1373903165
 10
429.7599480275
 20
-114.3557672079
 10
430.2280441024
 20
-110.623145049
 10
430.5630544973
 20
-106.9468306229
 10
430.7643234137
 20
-103.3340204877
 10
430.8314568581
 20
-99.791786889
  0
LWPOLYLINE
  5
11F
330
1F
100
AcDbEntity
  8
0
  6
Continuous
 62
     1
370
    25
100
AcDbPolyline
 90
       52
 70
   128
 43
0.0
 10
373.4945806882
 20
-82.3230230877
 10
372.9493233965
 20
-82.1604543439
 10
371.0793416434
 20
-81.7279535409
 10
369.1363901996
 20
-81.4656924637
 10
367.1270433976
 20
-81.3745585206
 10
365.058100231
 20
-81.45486008
 10
362.9365613486
 20
-81.7063254269
 10
360.7696053664
 20
-82.1281036822
 10
358.5645645775
 20
-82.7187676817
 10
356.3289001419
 20
-83.4763188055
 10
354.0701768405
 20
-84.3981937403
 10
351.7960374778
 20
-85.4812731532
 10
349.5141770216
 20
-86.7218922463
 10
347.2323165655
 20
-88.1158531573
 10
344.9581772028
 20
-89.6584391637
 10
342.6994539014
 20
-91.3444306427
 10
340.4637894658
 20
-93.1681227329
 10
338.2587486769
 20
-95.1233446375
 10
336.0917926947
 20
-97.2034805046
 10
333.9702538123
 20
-99.4014918127
 10
331.9013106457
 20
-101.7099411874
 10
329.8919638437
 20
-104.1210175668
 10
327.9490123999
 20
-106.6265626315
 10
326.0790306468
 20
-109.2180984101
 10
324.2883460108
 20
-111.886855966
 10
322.583017602
 20
-114.6238050683
 10
320.9688157117
 20
-117.4196847477
 10
319.4512022883
 20
-120.2650346323
 10
318.0353124552
 20
-123.1502269588
 10
316.7259371354
 20
-126.0654991496
 10
315.5275068405
 20
-129.0009868464
 10
314.4440766793
 20
-131.9467572881
 10
313.4793126364
 20
-134.89284292
 10
312.6364791681
 20
-137.8292751209
 10
311.9184281559
 20
-140.7461179337
 10
311.3275892572
 20
-143.6335016855
 10
310.8659616839
 20
-146.4816563839
 10
310.5351074374
 20
-149.2809447748
 10
310.3361460239
 20
-152.0218949525
 10
310.2697506658
 20
-154.695232409
 10
310.3361460239
 20
-157.2919114169
 10
310.5351074374
 20
-159.8031456361
 10
310.8659616839
 20
-162.2204378451
 10
311.3275892572
 20
-164.5356086921
 10
311.9184281559
 20
-166.740824372
 10
312.6364791681
 20
-168.8286231328
 10
313.4793126364
 20
-170.7919405244
 10
314.4440766793
 20
-172.6241333023
 10
315.5275068405
 20
-174.3190019061
 10
316.7259371354
 20
-175.8708114368
 10
318.0353124552
 20
-177.2743110623
 10
318.5392798231
 20
-177.7480284554
  0
LWPOLYLINE
  5
120
330
1F
100
AcDbEntity
  8
0
  6
Continuous
 62
     1
370
    25
100
AcDbPolyline
 90
       48
 70
   128
 43
0.0
 10
328.8743358918
 20
-182.5044813161
 10
328.2554289019
 20
-181.6666749125
 10
327.1719987406
 20
-179.9718063087
 10
326.2072346978
 20
-178.1396135308
 10
325.3644012294
 20
-176.1762961392
 10
324.6463502172
 20
-174.0884973784
 10
324.0555113186
 20
-171.8832816985
 10
323.5938837452
 20
-169.5681108515
 10
323.2630294988
 20
-167.1508186425
 10
323.0640680853
 20
-164.6395844233
 10
322.9976727271
 20
-162.0429054155
 10
323.0640680853
 20
-159.3695679589
 10
323.2630294988
 20
-156.6286177812
 10
323.5938837452
 20
-153.8293293903
 10
324.0555113186
 20
-150.9811746919
 10
324.6463502172
 20
-148.0937909401
 10
325.3644012294
 20
-145.1769481273
 10
326.2072346978
 20
-142.2405159264
 10
327.1719987406
 20
-139.2944302945
 10
328.2554289019
 20
-136.3486598528
 10
329.4538591968
 20
-133.413172156
 10
330.7632345166
 20
-130.4978999652
 10
332.1791243497
 20
-127.6127076387
 10
333.6967377731
 20
-124.7673577541
 10
335.3109396633
 20
-121.9714780748
 10
337.0162680722
 20
-119.2345289724
 10
338.8069527081
 20
-116.5657714165
 10
340.6769344612
 20
-113.9742356379
 10
342.6198859051
 20
-111.4686905732
 10
344.629232707
 20
-109.0576141938
 10
346.6981758736
 20
-106.7491648191
 10
348.819714756
 20
-104.551153511
 10
350.9866707382
 20
-102.4710176439
 10
353.1917115271
 20
-100.5157957393
 10
355.4273759627
 20
-98.6921036491
 10
357.6860992642
 20
-97.0061121701
 10
359.9602386268
 20
-95.4635261637
 10
362.242099083
 20
-94.0695652527
 10
364.5239595391
 20
-92.8289461596
 10
366.7980989018
 20
-91.7458667467
 10
369.0568222033
 20
-90.8239918119
 10
371.2924866388
 20
-90.0664406881
 10
373.4975274277
 20
-89.4757766886
 10
375.66448341
 20
-89.0539984333
 10
377.7860222924
 20
-88.8025330864
 10
379.8549654589
 20
-88.722231527
 10
381.8643122609
 20
-88.8133654701
 10
382.8759195781
 20
-88.9274111212
  0
LWPOLYLINE
  5
121
330
1F
100
AcDbEntity
  8
0
  6
Continuous
 62
     1
370
    25
100
AcDbPolyline
 90
       24
 70
   128
 43
0.0
 10
408.3461710726
 20
-92.246455891
 10
408.1271816406
 20
-92.1352591796
 10
407.3498046884
 20
-91.8826800074
 10
406.4954658538
 20
-91.8062892416
 10
405.5807938703
 20
-91.9075737414
 10
404.6235917877
 20
-92.1845621193
 10
403.6424904558
 20
-92.6318631116
 10
402.656585896
 20
-93.2407705133
 10
401.6850676191
 20
-93.9994326345
 10
400.7468451232
 20
-94.8930829798
 10
399.8601798421
 20
-95.9043276619
 10
399.0423297069
 20
-97.0134839532
 10
398.3092132401
 20
-98.1989633883
 10
397.6750997199
 20
-99.4376919584
 10
397.1523314446
 20
-100.7055592208
 10
396.7510835042
 20
-101.9778875815
 10
396.4791657332
 20
-103.2299126163
 10
396.341870702
 20
-104.4372650819
 10
396.341870702
 20
-105.5764452361
 10
396.4791657332
 20
-106.6252802327
 10
396.7510835042
 20
-107.5633556918
 10
397.1523314446
 20
-108.3724130415
 10
397.6750997199
 20
-109.0367049008
 10
398.2815315036
 20
-109.5259925479
  0
LWPOLYLINE
  5
122
330
1F
100
AcDbEntity
  8
0
  6
Continuous
 62
     1
370
    25
100
AcDbPolyline
 90
       24
 70
   128
 43
0.0
 10
354.4646343462
 20
-185.5720148171
 10
354.2456449142
 20
-185.4608181057
 10
353.468267962
 20
-185.2082389335
 10
352.6139291273
 20
-185.1318481677
 10
351.6992571439
 20
-185.2331326675
 10
350.7420550613
 20
-185.5101210454
 10
349.7609537294
 20
-185.9574220378
 10
348.7750491696
 20
-186.5663294395
 10
347.8035308927
 20
-187.3249915606
 10
346.8653083968
 20
-188.2186419059
 10
345.9786431157
 20
-189.229886588
 10
345.1607929804
 20
-190.3390428794
 10
344.4276765137
 20
-191.5245223144
 10
343.7935629935
 20
-192.7632508845
 10
343.2707947182
 20
-194.0311181469
 10
342.8695467777
 20
-195.3034465077
 10
342.5976290068
 20
-196.5554715424
 10
342.4603339756
 20
-197.7628240081
 10
342.4603339756
 20
-198.9020041622
 10
342.5976290068
 20
-199.9508391589
 10
342.8695467777
 20
-200.8889146179
 10
343.2707947182
 20
-201.6979719676
 10
343.7935629935
 20
-202.3622638269
 10
344.3999947772
 20
-202.851551474
  0
LWPOLYLINE
  5
123
330
1F
100
AcDbEntity
  8
0
  6
Continuous
 62
     1
370
    25
100
AcDbPolyline
 90
       24
 70
   128
 43
0.0
 10
354.4646343462
 20
-61.1311950857
 10
354.2456449142
 20
-61.0199983743
 10
353.468267962
 20
-60.7674192022
 10
352.6139291273
 20
-60.6910284363
 10
351.6992571439
 20
-60.7923129361
 10
350.7420550613
 20
-61.0693013141
 10
349.7609537294
 20
-61.5166023064
 10
348.7750491696
 20
-62.1255097081
 10
347.8035308927
 20
-62.8841718292
 10
346.8653083968
 20
-63.7778221746
 10
345.9786431157
 20
-64.7890668566
 10
345.1607929805
 20
-65.898223148
 10
344.4276765137
 20
-67.0837025831
 10
343.7935629935
 20
-68.3224311531
 10
343.2707947182
 20
-69.5902984156
 10
342.8695467777
 20
-70.8626267763
 10
342.5976290068
 20
-72.1146518111
 10
342.4603339756
 20
-73.3220042767
 10
342.4603339756
 20
-74.4611844308
 10
342.5976290068
 20
-75.5100194275
 10
342.8695467777
 20
-76.4480948865
 10
343.2707947182
 20
-77.2571522362
 10
343.7935629935
 20
-77.9214440955
 10
344.3999947772
 20
-78.4107317426
  0
LWPOLYLINE
  5
124
330
1F
100
AcDbEntity
  8
0
  6
Continuous
 62
     1
370
    25
100
AcDbPolyline
 90
       24
 70
   128
 43
0.0
 10
300.5830976198
 20
-154.4567540119
 10
300.3641081878
 20
-154.3455573005
 10
299.5867312356
 20
-154.0929781283
 10
298.7323924009
 20
-154.0165873624
 10
297.8177204175
 20
-154.1178718623
 10
296.8605183349
 20
-154.3948602402
 10
295.879417003
 20
-154.8421612325
 10
294.8935124432
 20
-155.4510686342
 10
293.9219941663
 20
-156.2097307554
 10
292.9837716704
 20
-157.1033811007
 10
292.0971063893
 20
-158.1146257828
 10
291.279256254
 20
-159.2237820741
 10
290.5461397873
 20
-160.4092615092
 10
289.912026267
 20
-161.6479900792
 10
289.3892579918
 20
-162.9158573417
 10
288.9880100513
 20
-164.1881857024
 10
288.7160922804
 20
-165.4402107372
 10
288.5787972492
 20
-166.6475632028
 10
288.5787972492
 20
-167.7867433569
 10
288.7160922804
 20
-168.8355783536
 10
288.9880100513
 20
-169.7736538127
 10
289.3892579918
 20
-170.5827111624
 10
289.912026267
 20
-171.2470030217
 10
290.5184580508
 20
-171.7362906687
  0
ENDSEC
  0
SECTION
  2
OBJECTS
  0
DICTIONARY
  5
C
330
0
100
AcDbDictionary
281
     1
  3
ACAD_GROUP
350
D
  3
ACAD_LAYOUT
350
1A
  3
ACAD_MLINESTYLE
350
17
  3
ACAD_PLOTSETTINGS
350
19
  3
ACAD_PLOTSTYLENAME
350
E
  3
ACAD_SCALELIST
350
47
  3
DWGPROPS
350
125
  0
DICTIONARY
  5
D
102
{ACAD_REACTORS
330
C
102
}
330
C
100
AcDbDictionary
281
     1
  0
DICTIONARY
  5
1A
102
{ACAD_REACTORS
330
C
102
}
330
C
100
AcDbDictionary
281
     1
  3
Layout1
350
1E
  3
Layout2
350
26
  3
Model
350
22
  0
DICTIONARY
  5
17
102
{ACAD_REACTORS
330
C
102
}
330
C
100
AcDbDictionary
281
     1
  3
Standard
350
18
  0
DICTIONARY
  5
19
102
{ACAD_REACTORS
330
C
102
}
330
C
100
AcDbDictionary
281
     1
  0
ACDBDICTIONARYWDFLT
  5
E
102
{ACAD_REACTORS
330
C
102
}
330
C
100
AcDbDictionary
281
     1
  3
Normal
350
F
100
AcDbDictionaryWithDefault
340
F
  0
DICTIONARY
  5
47
102
{ACAD_REACTORS
330
C
102
}
330
C
100
AcDbDictionary
281
     1
  3
A0
350
48
  3
A1
350
49
  3
A2
350
4A
  3
A3
350
4B
  3
A4
350
4C
  3
A5
350
4D
  3
A6
350
4E
  3
A7
350
4F
  3
A8
350
50
  3
A9
350
51
  3
B0
350
52
  3
B1
350
53
  3
B2
350
54
  3
B3
350
55
  3
B4
350
56
  3
B5
350
57
  3
B6
350
58
  3
B7
350
59
  3
B8
350
5A
  3
B9
350
5B
  3
C0
350
5C
  3
C1
350
5D
  3
C2
350
5E
  3
C3
350
5F
  3
C4
350
60
  3
C5
350
61
  3
C6
350
62
  3
C7
350
63
  3
C8
350
64
  3
C9
350
65
  3
D0
350
66
  3
D1
350
67
  3
D2
350
68
  0
XRECORD
  5
125
102
{ACAD_REACTORS
330
C
102
}
330
C
100
AcDbXrecord
280
     1
  1
DWGPROPS COOKIE
  2

  3

  4

  6

  7

  8
b.kav
  9

300
=
301
=
302
=
303
=
304
=
305
=
306
=
307
=
308
=
309
=
 40
0.0
 41
2459741.463674896
 42
2459741.463676424
  1

 90
        0
  0
LAYOUT
  5
1E
102
{ACAD_REACTORS
330
1A
102
}
330
1A
100
AcDbPlotSettings
  1

  2
none_device
  4

  6

 40
0.0
 41
0.0
 42
0.0
 43
0.0
 44
0.0
 45
0.0
 46
0.0
 47
0.0
 48
0.0
 49
0.0
140
0.0
141
0.0
142
1.0
143
1.0
 70
   688
 72
     1
 73
     0
 74
     5
  7

 75
    16
147
1.0
148
0.0
149
0.0
100
AcDbLayout
  1
Layout1
 70
     1
 71
     1
 10
0.0
 20
0.0
 11
420.0
 21
297.0
 12
0.0
 22
0.0
 32
0.0
 14
1.0000000000E+20
 24
1.0000000000E+20
 34
1.0000000000E+20
 15
-1.0000000000E+20
 25
-1.0000000000E+20
 35
-1.0000000000E+20
146
0.0
 13
0.0
 23
0.0
 33
0.0
 16
1.0
 26
0.0
 36
0.0
 17
0.0
 27
1.0
 37
0.0
 76
     0
330
1B
  0
LAYOUT
  5
26
102
{ACAD_REACTORS
330
1A
102
}
330
1A
100
AcDbPlotSettings
  1

  2
none_device
  4

  6

 40
0.0
 41
0.0
 42
0.0
 43
0.0
 44
0.0
 45
0.0
 46
0.0
 47
0.0
 48
0.0
 49
0.0
140
0.0
141
0.0
142
1.0
143
1.0
 70
   688
 72
     1
 73
     0
 74
     5
  7

 75
    16
147
1.0
148
0.0
149
0.0
100
AcDbLayout
  1
Layout2
 70
     1
 71
     2
 10
0.0
 20
0.0
 11
0.0
 21
0.0
 12
0.0
 22
0.0
 32
0.0
 14
0.0
 24
0.0
 34
0.0
 15
0.0
 25
0.0
 35
0.0
146
0.0
 13
0.0
 23
0.0
 33
0.0
 16
1.0
 26
0.0
 36
0.0
 17
0.0
 27
1.0
 37
0.0
 76
     0
330
23
  0
LAYOUT
  5
22
102
{ACAD_REACTORS
330
1A
102
}
330
1A
100
AcDbPlotSettings
  1

  2
none_device
  4
Letter_(8.50_x_11.00_Inches)
  6

 40
6.35
 41
6.35
 42
6.35000508
 43
6.35000508
 44
215.9
 45
279.4
 46
0.0
 47
0.0
 48
0.0
 49
0.0
140
0.0
141
0.0
142
1.0
143
1.0
 70
  1712
 72
     1
 73
     0
 74
     0
  7

 75
     0
147
1.0
148
0.0
149
0.0
100
AcDbLayout
  1
Model
 70
     1
 71
     0
 10
0.0
 20
0.0
 11
279.4
 21
215.9
 12
0.0
 22
0.0
 32
0.0
 14
0.0
 24
0.0
 34
0.0
 15
279.4
 25
215.9
 35
0.0
146
0.0
 13
0.0
 23
0.0
 33
0.0
 16
1.0
 26
0.0
 36
0.0
 17
0.0
 27
1.0
 37
0.0
 76
     0
330
1F
331
29
  0
MLINESTYLE
  5
18
102
{ACAD_REACTORS
330
17
102
}
330
17
100
AcDbMlineStyle
  2
Standard
 70
     0
  3

 62
   256
 51
90.0
 52
90.0
 71
     2
 49
0.5
 62
   256
  6
BYLAYER
 49
-0.5
 62
   256
  6
BYLAYER
  0
ACDBPLACEHOLDER
  5
F
102
{ACAD_REACTORS
330
E
102
}
330
E
  0
SCALE
  5
48
102
{ACAD_REACTORS
330
47
102
}
330
47
100
AcDbScale
 70
     0
300
1:1
140
1.0
141
1.0
290
     1
  0
SCALE
  5
49
102
{ACAD_REACTORS
330
47
102
}
330
47
100
AcDbScale
 70
     0
300
1:2
140
1.0
141
2.0
290
     0
  0
SCALE
  5
4A
102
{ACAD_REACTORS
330
47
102
}
330
47
100
AcDbScale
 70
     0
300
1:4
140
1.0
141
4.0
290
     0
  0
SCALE
  5
4B
102
{ACAD_REACTORS
330
47
102
}
330
47
100
AcDbScale
 70
     0
300
1:5
140
1.0
141
5.0
290
     0
  0
SCALE
  5
4C
102
{ACAD_REACTORS
330
47
102
}
330
47
100
AcDbScale
 70
     0
300
1:8
140
1.0
141
8.0
290
     0
  0
SCALE
  5
4D
102
{ACAD_REACTORS
330
47
102
}
330
47
100
AcDbScale
 70
     0
300
1:10
140
1.0
141
10.0
290
     0
  0
SCALE
  5
4E
102
{ACAD_REACTORS
330
47
102
}
330
47
100
AcDbScale
 70
     0
300
1:16
140
1.0
141
16.0
290
     0
  0
SCALE
  5
4F
102
{ACAD_REACTORS
330
47
102
}
330
47
100
AcDbScale
 70
     0
300
1:20
140
1.0
141
20.0
290
     0
  0
SCALE
  5
50
102
{ACAD_REACTORS
330
47
102
}
330
47
100
AcDbScale
 70
     0
300
1:30
140
1.0
141
30.0
290
     0
  0
SCALE
  5
51
102
{ACAD_REACTORS
330
47
102
}
330
47
100
AcDbScale
 70
     0
300
1:40
140
1.0
141
40.0
290
     0
  0
SCALE
  5
52
102
{ACAD_REACTORS
330
47
102
}
330
47
100
AcDbScale
 70
     0
300
1:50
140
1.0
141
50.0
290
     0
  0
SCALE
  5
53
102
{ACAD_REACTORS
330
47
102
}
330
47
100
AcDbScale
 70
     0
300
1:100
140
1.0
141
100.0
290
     0
  0
SCALE
  5
54
102
{ACAD_REACTORS
330
47
102
}
330
47
100
AcDbScale
 70
     0
300
2:1
140
2.0
141
1.0
290
     0
  0
SCALE
  5
55
102
{ACAD_REACTORS
330
47
102
}
330
47
100
AcDbScale
 70
     0
300
4:1
140
4.0
141
1.0
290
     0
  0
SCALE
  5
56
102
{ACAD_REACTORS
330
47
102
}
330
47
100
AcDbScale
 70
     0
300
8:1
140
8.0
141
1.0
290
     0
  0
SCALE
  5
57
102
{ACAD_REACTORS
330
47
102
}
330
47
100
AcDbScale
 70
     0
300
10:1
140
10.0
141
1.0
290
     0
  0
SCALE
  5
58
102
{ACAD_REACTORS
330
47
102
}
330
47
100
AcDbScale
 70
     0
300
100:1
140
100.0
141
1.0
290
     0
  0
SCALE
  5
59
102
{ACAD_REACTORS
330
47
102
}
330
47
100
AcDbScale
 70
     0
300
1/128" = 1'-0"
140
0.0078125
141
12.0
290
     0
  0
SCALE
  5
5A
102
{ACAD_REACTORS
330
47
102
}
330
47
100
AcDbScale
 70
     0
300
1/64" = 1'-0"
140
0.015625
141
12.0
290
     0
  0
SCALE
  5
5B
102
{ACAD_REACTORS
330
47
102
}
330
47
100
AcDbScale
 70
     0
300
1/32" = 1'-0"
140
0.03125
141
12.0
290
     0
  0
SCALE
  5
5C
102
{ACAD_REACTORS
330
47
102
}
330
47
100
AcDbScale
 70
     0
300
1/16" = 1'-0"
140
0.0625
141
12.0
290
     0
  0
SCALE
  5
5D
102
{ACAD_REACTORS
330
47
102
}
330
47
100
AcDbScale
 70
     0
300
3/32" = 1'-0"
140
0.09375
141
12.0
290
     0
  0
SCALE
  5
5E
102
{ACAD_REACTORS
330
47
102
}
330
47
100
AcDbScale
 70
     0
300
1/8" = 1'-0"
140
0.125
141
12.0
290
     0
  0
SCALE
  5
5F
102
{ACAD_REACTORS
330
47
102
}
330
47
100
AcDbScale
 70
     0
300
3/16" = 1'-0"
140
0.1875
141
12.0
290
     0
  0
SCALE
  5
60
102
{ACAD_REACTORS
330
47
102
}
330
47
100
AcDbScale
 70
     0
300
1/4" = 1'-0"
140
0.25
141
12.0
290
     0
  0
SCALE
  5
61
102
{ACAD_REACTORS
330
47
102
}
330
47
100
AcDbScale
 70
     0
300
3/8" = 1'-0"
140
0.375
141
12.0
290
     0
  0
SCALE
  5
62
102
{ACAD_REACTORS
330
47
102
}
330
47
100
AcDbScale
 70
     0
300
1/2" = 1'-0"
140
0.5
141
12.0
290
     0
  0
SCALE
  5
63
102
{ACAD_REACTORS
330
47
102
}
330
47
100
AcDbScale
 70
     0
300
3/4" = 1'-0"
140
0.75
141
12.0
290
     0
  0
SCALE
  5
64
102
{ACAD_REACTORS
330
47
102
}
330
47
100
AcDbScale
 70
     0
300
1" = 1'-0"
140
1.0
141
12.0
290
     0
  0
SCALE
  5
65
102
{ACAD_REACTORS
330
47
102
}
330
47
100
AcDbScale
 70
     0
300
1-1/2" = 1'-0"
140
1.5
141
12.0
290
     0
  0
SCALE
  5
66
102
{ACAD_REACTORS
330
47
102
}
330
47
100
AcDbScale
 70
     0
300
3" = 1'-0"
140
3.0
141
12.0
290
     0
  0
SCALE
  5
67
102
{ACAD_REACTORS
330
47
102
}
330
47
100
AcDbScale
 70
     0
300
6" = 1'-0"
140
6.0
141
12.0
290
     0
  0
SCALE
  5
68
102
{ACAD_REACTORS
330
47
102
}
330
47
100
AcDbScale
 70
     0
300
1'-0" = 1'-0"
140
12.0
141
12.0
290
     0
  0
ENDSEC
  0
EOF
